Hatful Of Love Tabs – The Kooks

 -------------------------------------------------------------------------------
                           HATFUL OF LOVE - The Kooks
-------------------------------------------------------------------------------

: Sean Fisk
Email: sean@seanfisk.com
Website: https://github.com/seanfisk/guitar-tabs

Tempo: About 71 beats per minute
Tuning: Standard

Note:

This song has at least two guitar tracks in it. However, this tab is for one
guitar, so it includes parts of both. I've tried to stay true to the song as
much as possible because I really like the original song's guitar performances.

I've attempted to tab this song to the best of my ability, notating minute
differences between repeated parts where I hear them. However, since this is
more of a fun song than an exercise in precision, I wouldn't sweat the details!
The Kooks obviously didn't (listen to the beginning of Tick of Time to hear a
clip of this song, and them messing around), and it turned out great!

Intro:
                           G
  1 + a 2 + a  3 + a 4 + a 1 + a 2  + a 3 + a 4  + a 1 + a 2  + a 3 + a 4 + a
e|-------------------------------3----3---3---3----3-------3----3-------------
B|---------------3-----1-----0---0h1--0-------0h1--0---0---0h1--0---3-----1---
G|-----------2/4---4-2-----------0----0-------0----0-------0----0-4---4-2-----
D|-----------------------0-----0-0h2--0-----0-0h2--0-----0-0h2--0-----------0-
A|----------------------------------------------------------------------------
E|-------------------------3------------3------------3------------------------

   G
   1 + a 2  + a 3 + a 4  + a 1 + a 2  + a 3 + a 4 + a
e|-------3----3---3---3----3-------3----3-------------
B|---0---0h1--0-------0h1--0---0---0h1--0---3-----1---
G|-------0----0-------0----0-------0----0-4---4-2-----
D|-----0-0h2--0-----0-0h2--0-----0-0h2--0-------------
A|----------------------------------------------------
E|-3------------3------------3------------------------

Verse 1:

  C
  1 + a 2 + a 3 + a 4 + a 1 + a 2 + a 3 + a 4 + a
e|0-----------------------8-----------8-----8---0-
B|1-----------------------8-----------8-----8---0-
G|0-----------------------9-----------9-----9---0-
D|2-----------------------10----------10----10--0-
A|3-----------------------10----------10----10----
E|3-----------------------8-----------8-----8-----

    I gotta hatful of love for you...
                               So why you waitin' so long?

   G                                      Dsus4 C
   1 + a 2  + a 3 + a 4  + a 1 + a 2  + a 3 + a 4 + a
e|-------3----3-------3----3---3---3----3-------------
B|---0---0h1--0---0---0h1--0-------0h1--0-3-333-1-111-
G|-------0----0-------0----0-------0----0-0-000-0-000-
D|-----0-0h2--0-----0-0h2--0-----0-0h2--0-4-444-2-222-
A|----------------------------------------5-555-3-333-
E|-3------------3------------3------------------------

  C
  1 + a 2 + a 3 + a 4 + a 1 + a 2 + a 3 + a 4 + a
e|0-------------------0---0-----------0-----0---0-
B|1-----------------1-----1-----------1-----1---1-
G|0---------------------0-0-----------0-----0---0-
D|2-----------------------2-----------2-----2---2-
A|3-----------------------3-----------3-----3---3-
E|3-----------------------3-----------3-----3---3-

        All my love-for-you babe
                               Oh, is going so strong

   G                                      Dsus4 C
   1 + a 2  + a 3 + a 4  + a 1 + a 2  + a 3 + a 4 + a
e|-------3----3-------3----3---3---3----3-------------
B|-------0h1--0---0---0h1--0-------0h1--0-3-333-1-1-0-
G|---0---0----0-------0----0-------0----0-0-000-0-0-0-
D|-----0-0h2--0-----0-0h2--0-----0-0h2--0-4-444-2-2-0-
A|----------------------------------------5-555-3-3-0-
E|-3------------3------------3------------------------

Chorus:

  D                       Em/G
  1 + a 2 + a 3 + a 4 + a 1 + a 2 + a 3 + a 4 + a
e|2-----2-----2-----2---2-3-----3-----3-----3---3-
B|3-----3-----3-----3---3-0-----0-----0-----0---0-
G|2-----2-----2-----2---2-0-----0-----0-----0---