Heart Of Worship Tabs – Matt Redman

 -------------------------------------------------------------------------------
heart of worship - Matt Redman
-------------------------------------------------------------------------------
:
Key Of D
Tuning:E-A-D-G-B-e
e|---------------------------------------------------------------------------|
B|---------------------------------------------------------------------------|
G|--2----2--2------------------------------2--2-2------------2--2----2-------|
D|--0----0--0--0----2----4--2---2----0-0---0--0-0--0----2----0--0----0---0---|
A|-------------0----0----5--0---0----2-2-----------0----0----------------0---|
E|---------------------------------------------------------------------------|
when the music fades all is swept away and I simply come longing just to
e|---------------------------------------------------------------------------|
B|---------------------------------------------------------------------------|
G|---------------------------------2---2-----2-------------------------------|
D|--2-----4---2-----2----0---0-----0---0-----0-----0-----2-------------------|
A|--0-----0---0-----0----0---0---------------------0-----0-------------------|
E|---------------------------------------------------------------------------|
bring something thats of worth that will bless your heart 
e|---------------------------------------------------------------------------|
B|---------------------------------------------------------------------------|
G|--0----0-----0----------------------------------------0---0---0------------|
D|--0----0-----0---4----2---0--2----2--0--4---2---0-----0---0---0---4----2---|
A|-----------------0----0---0--0----0--0--0---0---0-2---------------0----0---|
E|--------------------------------------------------3------------------------|
I'll bring you more than a song for a song in itself is not what you have 
e|---------------------------------------------------------------------------|
B|---------------------------------------------------------------------------|
G|----------0----0------0------------------------------------------------0---|
D|--0--2----0----0------0-----4-2--0--2----2-------0---4----2-----0------0---|
A|--0--0----------------------0-0--0--0----0-------0---0----0-----0--2-------|
E|-------------------------------------------------------------------3-------|
required you search much deeper within through the way things appear You're
e|---------------------------------------------------------------------------|
B|------------------0--------------------------------------------------------|
G|---0--0----2---------2-----------------------------------------------------|
D|---0--0----0-0-0--0--0-----------------------------------------------------|
A|-------------0-0-----------------------------------------------------------|
E|---------------------------------------------------------------------------|
looking into my heart
e|---------------------------------------------------------------------------|
B|------------------------------0--------------------------------------------|
G|-------2--2--2----2----------------2-----------------------0---------------|
D|-------0--0--0----0---0---0---0----0---4--2----0--2-----4--0-4----2-0-2----|
A|----------------------0---0------------5--4----2--4-----5----5----4-2-4----|
E|---------------------------------------------------------------------------|
chorus: I'm coming back to the heart of worship and it's all about You it's 
e|---------------------------------------------------------------------------|
B|----------------------------------------------0----------------------------|
G|------0--------------2---2-2----2-------------------2----------------------|
D|-4----2-4--2---2--0--0---0-0----0----0---0----0-----0----4---2---0---2-----|
A|-5------5--4---4--0------------------0---0---------------5---4---2---4-----|
E|---------------------------------------------------------------------------|
all about Yo