Hearts In Motion Tabs – Yuck

 Yuck- hearts in motion. Great new track that I couldn't
find on here so I thought I'd try and figure it out myself.
so I don't know if it's super accurate but it 
sounds fine to me.
Main/intro riff:
E-|-----10-------9-------7---------7----|
B-|---7----7---7---7---7---7---7h8---7--|
G-|-7--------7-------7-------7----------|
D-|-------------------------------------|
A-|-------------------------------------|
E-|-------------------------------------|
Played after intro and throughout much of the song:
E-|------x-x-------x-x-x-------x-x-----------|
B-|------x-x-------x-x-x-------x-x-----------|
G-|--7-7-x-x---7-7-x-x-x---5-7-x-x---7-7-----|
D-|------x-x-------x-x-x-------x-x-------7-7-|
A-|--5-5-x-x---5-5-x-x-x---5-7-x-x---5-5-----|
E-|------x-x-------x-x-x-------x-x-------5-5-|
A little lower variation thrown in sometimes:
E-|--------------------------------|
B-|--------------------------------|
G-|-----7~-----6~-----4~-------4---|
D-|---4------4------4------4h5---5-|
A-|-5------5------5------5---------|
E-|--------------------------------|
Aaaand one last riff here:
E-|----------------------------------------------------|
B-|----------------------------------------------------|
G-|-7-7-11-11-11\-7-7-12-12-12\--7-7-14-14-14\--7-7----|
D-|-------------------------------------------------7-7|
A-|-5-5-9--9--9\--5-5-10-10-10\--5-5-12-12-12\--5-5----|
E-|-------------------------------------------------5-5|
And that's about all! If you have any improvement or corrections feel free I'd rather have it correct then not!