[Intro] repeat this.

  Dm
e|---------------8----------------------------------------------------------|
B|---10---10-10-------------------------------------------------------------|
G|--------------------------------------------------------------------------|
D|---(0)--------------------------------------------------------------------|
A|--------------------------------------------------------------------------|
E|--------------------------------------------------------------------------|

0:10 "I will help you..."
  Dm         C          F         G        Bb      Am        Dm
e|--------------------------------------------------------------------------|
B|--------------------------6----------8------------------------------------|
G|-----7---------5--------5---5------7---7-----3--------2-----7~------------|
D|---7---7-----5---5----3---------5----------3---3----2---2---7~------------|
A|-5---------3-----------------------------1--------0---------5~------------|
E|--------------------------------------------------------------------------|


0:20 [Verse] is simply just Dm and Bb
   Dm       Bb
e|--------------------------------------------------------------------------|
B|--------------------------------------------------------------------------|
G|--7--------3--------------------------------------------------------------|
D|--7--------3--------------------------------------------------------------|
A|--5--------1--------------------------------------------------------------|
E|--------------------------------------------------------------------------|

0:41 "It's time you release yourself..."
   C         Am   Bb       C          Bb
e|--------------------------------------------------------------------------|
B|--------------------------------------------------------------------------|
G|--5--------2----3--------5----------3~------------------------------------|
D|--5--------2----3--------5----------3~------------------------------------|
A|--3--------0----1--------3----------1~------------------------------------|
E|--------------------------------------------------------------------------|


0:52 [Chorus]  "I will help you..."               
  Dm         C         F         G      |   Bb       Am      |  Dm
e|--------------------------------------------------------------------------|
B|--------------------------------------------------------------------------|  Tremelo effect here 
G|-7----7----5----5-------------------------3----3----2----2-----7----7-----|  at the Bb and Am 
D|-7----7----5----5----3----3----5----5-----3----3----2----2-----7----7-----|  The | PART | is Tremelo.
A|-5----5----3----3----3----3----5----5-----1----1----0----0-----5----5-----|  I.e the boxed part.
E|---------------------1----1----3----3-------------------------------------|  

    Bb      C        F        G      | Bb       Am   |   Dm 
e|--------------------------------------------------------------------------|
B|--------------------------------------------------------------------------|
G|-3---3----3---5----------------------3---3----2---2----7---7--------------|
D|-3---3----5---5----3---3----5---5----3---3----2---2----7---7--------------| 
A|-1---1----3---3----3---3----5---5----1---1----0---0----5---5--------------|
E|-------------------3---1----3---3-----------------------------------------|


1:10 End of chorus                                          
    Dm             F            Dm          F
e|--------------------------------------------------------------------------|
B|--------------------------------------------------------------------------|
G|---7-----7--------------------7-----7-------------------------------------|
D|---7-----7-------3-----3------7-----7-----3-----3-------------------------|
A|---5-----5-------3-----3------5-----5-----3-----3-------------------------|
E|-----------------1-----1------------------1-----1-------------------------|

1:10 Tremelo picked guitar
Repeat
e|-15-15-15-15-15-15-15-15-15-15-12-12-12-1
(Visited 1 times, 1 visits today)