Herex Tabs – Biffy Clyro

 Biffy Clyro – Herex
Ellipsis
Tuning: Drop C#/Db
[Intro]
Eb|---------------------------
Bb|---------------------------
Gb|---------------------------
Db|-------------------5-5-5-5-
Ab|-------------8----\3-3-3-3-
Db|-3----\10-10---------------
Main Riff:
Eb|-----------------------------
Bb|-----------------------------
Gb|-----------------------------
Db|---------------10----5-5-5-5-      x3
Ab|-3----10-10----8-----3-3-3-3-
Db|-3----10-10------------------
[Verse]
Eb|----------------------------------------------------------------------------------------
Bb|----------------------------------------------------------------------------------------
Gb|----------------------------------------------------------------------------------------
Db|---------------------------------------------------------------------------------------- x2   
Ab|----------------------------------------------------------------------------------------
Db|-10-10---10-10-10-10-------10-10---10-10-10-10-------7-7---7-7-7-7-------6-6----6-6-6-6-
[Pre-Chorus]
Eb|-----------------
Bb|-----------------
Gb|-7-------5-------
Db|-5-------3-------  x2
Ab|-5-------3-------
Db|-5-------3-------
[Chorus]
Eb|-0----0----0--------------------------------------------0----0----0-0----0-
Bb|----------------1----1-1----1-1----1-1----1-1----3-3----1----1----1-1----1-
Gb|-5----5----5----2----2-2----2-2----2-2----2-2----0-0----2----2----2-2----2-
Db|-5--------------3----3-3----3-3----3-3----3-3----0-0----2----2----2-2----2-  x2
Ab|-3----5----7----3----3-3----3-3----3-3----3-3-----------0----0----0-0----0-
Db|----------------3----3-3----3-3----3-3----3-3----5-5-----------------------
Main Riff:
Eb|-----------------------------
Bb|-----------------------------
Gb|-----------------------------
Db|---------------10----5-5-5-5-  x2    
Ab|-3----10-10----8-----3-3-3-3-
Db|-3----10-10------------------
[Verse]
Eb|----------------------------------------------------------------------------------------
Bb|----------------------------------------------------------------------------------------
Gb|----------------------------------------------------------------------------------------
Db|----------------------------------------------------------------------------------------    
Ab|----------------------------------------------------------------------------------------
Db|-10-10---10-10-10-10-------10-10---10-10-10-10-------7-7---7-7-7-7-------6-6----6-6-6-6-
Eb|-------------------------------------------------------------------------------------------
Bb|-------------------------------------------------------------------------------------------
Gb|-------------------------------------------------------------------------------------------
Db|-------------------------------------------------------------------------------------------
Ab|-------------------------------------------------------------------------------------------
Db|-9b10-10-10---10-10-10-10-------10-10---10-10-10-10-------7-7---7-7-7-7-------6-6---6-6-6-6
[Pre-Chorus]
Eb|-----------------
Bb|-----------------
Gb|-7-------5-------
Db|-5-------3-------  x2
Ab|-5-------3-------
Db|-5-------3-------
[Chorus]
Eb|-0----0----0--------------------------------------------0----0----0-0----0-
Bb|----------------1----1-1----1-1----1-1----1-1----3-3----1----1----1-1----1-
Gb|-5----5----5----2----2-2----2-2----2-2----2-2----0-0----2----2----2-2----2-
Db|-5--------------3----3-3----3-3----3-3----3-3----0-0----2----2----2-2----2-   x3
Ab|-3----5----7----3----3-3----3-3----3-3----3-3-----------0----0----0-0----0-
Db|----------------3----3-3----3-3----3-3----3-3----5-5-----------------------
Eb|-0----0----0-----------------------------------------
Bb|----------------1----1-1----1-1----1-1----1-1----3-3-
Gb|-5----5----5----2----2-2----2-2----2-2----2-2----0-0-
Db|-5--------------3----3-3----3-3----3-3----3-3----0-0-
Ab|-3----5----7----3----3-3----3-3----3-3----3-3--------
Db|----------------3----3-3----3-3-