Hey Hey My My chords – Neil Young V2

 hey hey my my (into the black) (rhythm guitar)
tabbed my Andy Tate

intro

     Am D5 Fmaj9 Am D5 Fmaj9 
e---0-------------------0-0-0-0-0-0-0-----0-------------------0-0-0-0-0-0-0
B---1---------3---------1-1-1-1-1-1-1-----1---------3---------1-1-1-1-1-1-1
G---2---------2---------0-0-0-0-0-0-0-----2---------2---------0-0-0-0-0-0-0
D---2-------0-0---------3-3-3-3-3-3-3-----2-------0-0---------3-3-3-3-3-3-3
A-0-0-0-2-3-----2-0---0-3-3-3-3-3-3-3---0-0-0-2-3-----2-0---0-3-3-3-3-3-3-3
E-------------------3---1-1-1-1-1-1-1---------------------3---1-1-1-1-1-1-1

      C G Am Fmaj9 
e----0---------3-3-3---0-0-0-0--0-0-0-0-0-0
B----1---------3-3-3---1-1-1-1--1-1-1-1-1-1
G----0-------0-0-0-0---2-2-2-2--0-0-0-0-0-0
D----2---0-2---0-0-0---2-2-2-2--3-3-3-3-3-3
A--3-3-3-------2-2-2-0-0-0-0-0--3-3-3-3-3-3
E--------------3-3-3------------1-1-1-1-1-1

Verse 1 
 Am D5 Fmaj9 Am D5 Fmaj9 
 My my, hey hey    Rock and roll is here to stay
 C G Am Fmaj9 
 It's better to burn out  Than to fade away
 Am D5 Fmaj9 
 My my, hey hey.


instrumental break 

     Am D5 Fmaj9 Am D5 Fmaj9 
e---0-------------------0-0-0-0-0-0-0-----0-------------------0-0-0-0-0-0-0
B---1---------3---------1-1-1-1-1-1-1-----1---------3---------1-1-1-1-1-1-1
G---2---------2---------0-0-0-0-0-0-0-----2---------2---------0-0-0-0-0-0-0
D---2-------0-0---------3-3-3-3-3-3-3-----2-------0-0---------3-3-3-3-3-3-3
A-0-0-0-2-3-----2-0---0-3-3-3-3-3-3-3---0-0-0-2-3-----2-0---0-3-3-3-3-3-3-3
E-------------------3---1-1-1-1-1-1-1---------------------3---1-1-1-1-1-1-1

      C G Am Fmaj9 
e----0---------3-3-3---0-0-0-0--0-0-0-0-0-0
B----1---------3-3-3---1-1-1-1--1-1-1-1-1-1
G----0-------0-0-0-0---2-2-2-2--0-0-0-0-0-0
D----2---0-2---0-0-0---2-2-2-2--3-3-3-3-3-3
A--3-3-3-------2-2-2-0-0-0-0-0--3-3-3-3-3-3
E--------------3-3-3------------1-1-1-1-1-1

Verse 2

 Am D5 Fmaj9 Am D5 Fmaj9 
 Out of the blue and into the black    You pay for this, but they give you that
 C G Am Fmaj9 
 And once you're gone, you can't come back
 Am D5 Fmaj9 
 When you're out of the blue and into the black.

instrumental break 

     Am D5 Fmaj9 Am D5 Fmaj9 
e---0-------------------0-0-0-0-0-0-0-----0-------------------0-0-0-0-0-0-0
B---1---------3---------1-1-1-1-1-1-1-----1---------3---------1-1-1-1-1-1-1
G---2---------2---------0-0-0-0-0-0-0-----2---------2---------0-0-0-0-0-0-0
D---2-------0-0---------3-3-3-3-3-3-3-----2-------0-0---------3-3-3-3-3-3-3
A-0-0-0-2-3-----2-0---0-3-3-3-3-3-3-3---0-0-0-2-3-----2-0---0-3-3-3-3-3-3-3
E-------------------3---1-1-1-1-1-1-1---------------------3---1-1-1-1-1-1-1

      C G Am Fmaj9 
e----0---------3-3-3---0-0-0-0--0-0-0-0-0-0
B----1---------3-3-3---1-1-1-1--1-1-1-1-1-1
G----0-------0-0-0-0---2-2-2-2--0-0-0-0-0-0
D----2---0-2---0-0-0---2-2-2-2--3-3-3-3-3-3
A--3-3-3-------2-2-2-0-0-0-0-0--3-3-3-3-3-3
E--------------3-3-3------------1-1-1-1-1-1

Verse 3

 Am D5 Fmaj9 Am D5 Fmaj9 
 The king is gone but he's not forgotten  This is the story of a Johnny Rotten
 C G Am Fmaj9 
 It's better to burn out   than it is to rust
 Am D5 Fmaj9 
 The king is gone  but he's not forgotten.

instrumental bre
(Visited 1 times, 1 visits today)

Comments are closed.