Hilang chords – Mulan Jameela

 •       : Setiawan Dwi Rakhmadi
• Tuning         : Standard
• Official MV    : https://www.youtube.com/watch?v=sTZfYfVq9P0
• Helping Chords : - G6    : 320000 or 3200××
- E/G#  : 4221××
-  Am/F#  : 202210
-  Bm/F#  : 224432
-  Dm/F   : 100231
- D/B   : ×20232
[Intro]
e|---------------|---------------|---------------|---------------|
B|---------------|---------------|---------------|---------------|
G|-4---2---4-----|-2---0---2-----|-0-------0-----|---------------|
D|-------------0-|-------------0-|-----4-------0-|-4---2---4---0-|
A|---------------|---------------|---------------|---------------|
E|---------------|---------------|---------------|---------------|
e|-×-------------|
B|-×-------------|
G|-0-------------|
D|-0-------------|
A|-2-------------|
E|-3-------------|
[Verse]
G6 F# 
Dinginku ini 
F E E/G# 
bukan tak berarti kepada dirimu
C G6 A/C# 
Ku pernah kecewa dan hatiku pernah terluka
D/A 
Walau kamu tak tahu
[Verse]
G6 F# 
Memang salahku 
F E E/G# 
Ku pernah membuka pintu hati ini
C G6 A/C# 
Meski tak mungkin bisa aku dan kamu
D/A 
Untuk selama-lamanya
[Pre-Chorus]
C D 
Kini ku akan pergi
C D Em7 Am/F# G D 
menghilang dari hidupmu
[Chorus]
Cmaj7 Bm7 
Jangan pernah menangis sayang 
Bm/F# Am7 D7 Dm/F G 
Bila saat-nya tiba ku tak di sini
Cmaj7 Bm7 E7 Am 
Jangan pernah sesali apa yang telah terjadi
Am/G F#m7 B E 
Kini ku menghilang dan aku pun harus pergi
[interlude]
A E D 
[Verse]
G6 F#7 
Maafkan sayang
Bm E E/G# 
Aku tak pernah bisa jadi milik kamu
C G6 A/C# 
Dan pastinya kamu pun takkan pernah bisa
D/A D/B 
Jadi milikku jua
[Pre-Chorus]
C D 
Kini ku akan pergi 
C D Em7 Am/F# G D 
menghilang dari hidupmu
[Chorus]
Cmaj7 Bm7 
Jangan pernah menangis sayang 
Am7 D7 Dm/F G 
Bila saatnya tiba ku tak di sini
Cmaj7 Bm7 E7 Am 
Jangan pernah sesali apa yang telah terjadi 
Am/G F#m7 B E A E D 
Kini ku menghilang dan aku pun harus pergi   pergi
[interlude]
E A E D E 
[Modulation]
Dmaj7 C#m7 
Jangan pernah menangis sayang 
Bm7 Bm7/A Em A 
Bila saatnya tiba ku tak di sini
Dmaj7 C#m7 F#7 Bm 
Jangan pernah sesali apa yang telah terjadi
Bm/A G#m C# F# 
Kini ku menghilang dan aku pun harus pergi
E Dmaj7 C#m7 
Jangan pernah menangis sayang 
Bm7 Bm7/A Em A 
Bila saatnya tiba ku tak di sini
Dmaj7 C#m7 F#7