Hold Heart chords – Emilíana Torrini V2

 Emiliana Torrini "Hold heart"
Am G F E Dm Dm/C C B7   
e:---5----3----1----0----1----1----0----0--|
B:---5----3----1----0----3----3----1----0--|
G:---5----4----2----1----2----2----0----2--|
D:---7----5----3----2----0----x----2----x--|
A:---7----5----3----2---------3----3----2--|
E:---5----3----1----0----------------------|
Am                        
e:-----------------------------------------:  
B:-------5-----------5-----------5-----5-5-:  
G:-------5-----------5-----------5-----5-5-:
D:-----------------------------------------:
A:-----------------------------------------:
E:-5--------5--5--------5--5--------5--5-5-:      
Am G 
Hold heart don't beat so loud
F E 
For me keep your calm as he walks out on you
Am G 
No tears don't you come out
F E 
If you blind me now, I'm defeated
Am G 
No lips don't make a sound
F E 
Don't let him hear the break in your voice
Dm Dm/C G        
Hand let go of his with ease and grace
C B7 E 
Don't let him bleed under your nails
Dm Dm/C G  
Oh lord take off thy crown you're my king 
C B7 E 
no more with that merciless heart
Am G 
Hold heart don't beat so loud
F E 
For me keep your calm lest he walks out on you
Am G 
No tears don't you come out
F E 
If you blind me now I am defeated