Hole In The Door Tabs – Peer Günt

 notation legend:      

/   - slide up
\   - slide down


Intro:

E |-----------|-----------|-----------|-------------------|-------------12-----|
B |-----------|-----------|-----------|------------------___--------/12----12\-|
G#|-3-3-0--5--|-3-3-0--5--|-3-3-0--5--|----5-5-0-3-3-3-0'___'0-----------------|
E |-3-3-0--5--|-3-3-0--5--|-3-3-0--5--|----5-5-0-3-3-3-0'-|-'0-----------------|
B |-----------|-----------|-----------|-------------------|--------------------|
E |-----------|-----------|-----------|-------------------|--------------------|


Verse:

E |-------|--------------|--------------|--------------|-----------|
B |-------|--------------|--------------|--------------|-----------|
G#|-------|--------------|--------------|--------------|-----------|
E |-------|------------0-|------------0-|------------0-|-----------|
B |-------|-0-2--3-2-0---|-0-2--3-2-0---|-0-2--3-2-0---|-0-2-------|
E |-0-0-0-|--------------|--------------|--------------|-----------|


           Cold walls....  
E |-------|--------------|--------------|--------------|--------------|
B |-------|--------------|--------------|--------------|--------------|
G#|-------|--------------|--------------|--------------|--------------|
E |-------|------------0-|------------0-|------------0-|------------0-|
B |-------|-0-2--3-2-0---|-0-2--3-2-0---|-0-2--3-2-0---|-0-2--3-2-0---|
E |-0-0-0-|--------------|--------------|--------------|--------------|


   I'm lying here...
E |--------------|--------------|--------------|--------------|
B |--------------|--------------|--------------|--------------|
G#|--------------|--------------|--------------|--------------|
E |------------0-|------------0-|------------0-|------------0-|
B |-0-2--3-2-0---|-0-2--3-2-0---|-0-2--3-2-0---|-0-2--3-2-0---|
E |--------------|--------------|--------------|--------------|



                      A little light...   
E |------------------|--------------|------------------|
B |------------------|--------------|------------------|
G#|-3-3-0--5-5-5--0--|--------------|-3-3-0--5-5-5--0--|
E |-3-3-0--5-5-5--0--|------------0-|-3-3-0--5-5-5--0--|
B |------------------|-0-2--3-2-0---|------------------|
E |------------------|--------------|------------------|


   I have smoked...
E |--------------|--------------|--------------|--------------|
B |--------------|--------------|--------------|--------------|
G#|--------------|--------------|--------------|--------------|
E |------------0-|------------0-|------------0-|------------0-|
B |-0-2--3-2-0---|-0-2--3-2-0---|-0-2--3-2-0---|-0-2--3-2-0---|
E |--------------|--------------|--------------|--------------|


   I'm so worry...
E |--------------|--------------|--------------|--------------|
B |--------------|--------------|--------------|--------------|
G#|--------------|--------------|--------------|--------------|
E |------------0-|------------0-|------------0-|------------0-|
B |-0-2--3-2-0---|-0-2--3-2-0---|-0-2--3-2-0---|-0-2--3-2-0---|
E |--------------|--------------|--------------|--------------|


                      Only thing I can see.   
E |------------------|--------------|
B |------------------|--------------|
G#|-3-3-0--5-5-5--0--|--------------|
E |-3-3-0--5-5-5--0--|------------0-|
B |------------------|-0-2--3-2-0---|
E |------------------|--------------|


                      A blinking eye...   
E |------------------|--------------|
B |------------------|--------------|
G#|-3-3-0--5-5-5--0--|--------------|
E |-3-3-0--5-5-5--0--|------------0-|
B |------------------|-0-2--3-2-0---|
E |------------------|--------------|


                      A little light in the dark.   
E |------------------|--------------|
B |------------------|--------------|
G#|-3-3-0--5-5-5--0--|--------------|
E |-3-3-0--5-5-5--0--|------------0-|
B |------------------|-0-2--3-2-0---|
E |------------------|--------------|


                                There's a, there's a,                 
E |------------------|--------------|-----
(Visited 1 times, 1 visits today)

Comments are closed.