I Take Your Money And Honey Tabs – Peer Günt

 notation legend:      

/   - slide up
\   - slide down
~   - vibrato


Intro:
E |---------------------------|----------------------------------|
B |---------------------------|----------------------------------|
G#|---------------------------|----------------------------------|
E |---------------------------|----------------------------------|
B |----/5--3--5---5-5-5--/8---|--------------6 / 11\---/3-/3-0---|
E |-0-------------------------|-7--5--3--0-----------------------|


E |---------------------------|---------------------12~------------|
B |---------------------------|---------------------12~------------|
G#|---------------------------|--------------11/12--12~------------|
E |---------------------------|------------------------------------|
B |----/5--3--5---5-5-5--/8---|--------------------------/3-/3-0---|
E |-0-------------------------|-7--5--3--0-------------------------|


E |---------------------|-----------------------|
B |---------------------|-----------------------|
G#|--/5----3--0---/12---|--/5----3--0---/12  \--|
E |--/5----3--0---/12---|--/5----3--0---/12  \--|
B |---------------------|-----------------------|
E |---------------------|-----------------------|


Verse:
E |------------------------------|------------------------------|
B |------------------------------|------------------------------|
G#|------------------------------|------------------------------|
E |---0-0-0-0--0----0-3--0----0--|------------------------------|
B |-3------------3---------3-----|-------------------3--0----0--|
E |------------------------------|-3-0-0-0-0--0-3--0------3-----|


Chorus:
E |-----------|-------------------------|
B |-3----5----|----5--7----11-11-11-11--|
G#|-3----5----|-/5----7----11-11-11-11--|
E |-3----5----|-------7----11-11-11-11--|
B |-----------|-------------------------|
E |-----------|-------------------------|


Verse2:
E |------------------------------|------------------------------|
B |------------------------------|------------------------------|
G#|------------------------------|------------------------------|
E |---0-0-0-0--0----0-3--0----0--|------------------------------|
B |-3------------3---------3-----|-------------------3--0----0--|
E |------------------------------|-3-0-0-0-0--0-3--0------3-----|

Comments are closed.