Im Alive Tab by Kenny Chesney

Okay My first Tab ever... its flawless =) Capo 1st fret drop to D.
i couldnt find any tabs for this so I just did it my self...
e---5------5--6-----6--7-----7--6-----6-|
b---3------3----------------------------|
g---2--2---2----0--------0--------0-----|
d--------0--------0--------0--------0---|
a---------------------------------------|
E---0---------4-----4--5-----5--5-----5-|
Play through the WHOLE song... over and over and over and over again...
OUTRO:
e---------------------------------------------7--|
B---------------------------------------------7--|
G--------9-9h11-11p9--7h9--9/11--11-7--9------7--|
D-----7-------------------------------------7----|
A-\9--------------------------------------9------|
E------------------------------------------------|
The End Have Fun... Email me if you like it mrmotormouth@comcast.net