Im An Animal Tabs – KISS Vsion 2

 ---------------------------------------------------------------------------------------------------------------
I'M AN ANIMAL - KISS
---------------------------------------------------------------------------------------------------------------
Tuning: Half-Step Down (D# G# C# F# A# D#)
Stuff To Know:
~ - vibrato
b - bend
p - pull off
PM - palm mute where the dots are
/ - slide up
\ - slide down
If you feel there's something wrong with the tab just hit me up in comments below :)
Good Luck!
Intro/Chorus
eb|---------------------------------------------------------------------|
Bb|---------------------------------------------------------------------|
Gb|----------7-8-9~--------12--11--10-----------------------------------|
Db|---5-6-7--7-8-9~----2----x---x---x----2------------------------------|
Ab|---5-6-7--5-6-7~----2---10~--9~--8~---2---7-5-7-5--------------------|
Eb|---3-4-5------------0-----------------0-----------7\5-3-3-0-3-5~-----|
eb|-------------------------------------------|
Bb|-------------------------------------------|
Gb|-------12--11--12--------------------------|
Db|---2----x---x---x----2-----------5-6-7-----|
Ab|---2---10~--9~--8~---2-----------5-6-7-----|
Eb|---0-----------------0--/slide\--3-4-5-----| (/slide\ - you can do 3/14\3)
eb|----------------------------------------------------|
Bb|----------------------------------------------------|
Gb|-------12--11--10-----------------------------------|
Db|---2----x---x---x----2------------------------------|
Ab|---2---10~--9~--8~---2---7-5-7-5--------------------|
Eb|---0-----------------0-----------7\5-3-3-0-3-5~-----|
eb|--------------------------------------|
Bb|--------------------------------------|
Gb|-------12--11--10-----------7-8-9-----|
Db|---2----x---x---x----5-6-7--7-8-9-----|
Ab|---2---10~--9~--8~---5-6-7--5-6-7-----|
Eb|---0-----------------3-4-5------------|
Verse [x2]
PM   .....          .....         .....
eb|----------------------------------------------------------|
Bb|----------------------------------------------------------|
Gb|------------------------7/9~------------------------------|
Db|--2-2-2----------2-2-2--7/9~---2-2-2---------5--4/5\4-----|
Ab|--2-2-2--0-1~----2-2-2--5/7~---2-2-2--0-1~---5--4/5\4-----|
Eb|--0-0-0----------0-0-0---------0-0-0---------3--2/3\2-----|
PM   .....          .....         .....
eb|--------------------------------------------------------|
Bb|--------------------------------------------------------|
Gb|------------------------7/9~----------------------------|
Db|--2-2-2----------2-2-2--7/9~---2-2-2---------5--5/7-----|
Ab|--2-2-2--0-1~----2-2-2--5/7~---2-2-2--0-1~---5--5/7-----|
Eb|--0-0-0----------0-0-0---------0-0-0---------3--3/5-----| [Repeat Verse x1 more time]
Bridge
eb|----------------------------------------------------------------------------------------|
Bb|----------------------------------------------------------------------------------------|
Gb|----------------------------------------------------------------------------------------|
Db|---9-9-9-9-9-9-9-9---7-7-7-7-7-7-7-7---10-10-10-10-10-10-10-10---12-12-12-12-12-12\-----|
Ab|---9-9-9-9-9-9-9-9---7-7-7-7-7-7-7-7---10-10-10-10-10-10-10-10---12-12-12-12-12-12\-----|
Eb|---7-7-7-7-7-7-7-7---5-5-5-5-5-5-5-5---8--8--8--8--8--8--8--8----10-10-10-10-10-10\-----|
Chorus
eb|----------------------------------------------------|
Bb|----------------------------------------------------|
Gb|-------12--11--10-----------------------------------|
Db|---2----x---x---x----2------------------------------|
Ab|---2---10~--9~--8~---2---7-5-7-5--------------------|
Eb|---0-----------------0-----------7\5-3-3-0-3-5~-----|
eb|-------------------------------------------|
Bb|-------------------------------------------|
Gb|-------12--11--12--------------------------|
Db|---2----x---x---x----2-----------5-6-7-----|
Ab|---2---10~--9~--8~---2-----------5-6-7-----|
Eb|---0-----------------0--/slide\--3-4-5-----|