Infinite Escape Tabs – SECRETS Vsion 1

 SECRETS - Infinite Escape | Tuning - Drop C
This is a LEAD guitar tab for Infinite Escape by SECRETS. If you find mistakes please correct me. 
Stay tuned for the rhythm guitar tab
Verse - 2x
D|-------------------|--------------------|------------------|-----------------------|
A|-------------------|--------------------|------------------|-----------------------|
F|-------------------|--------------------|------------------|-----------------------|
C|-------------------|--------------------|------------------|-----------------------|
G|-8-5---------------|--------------------|-5-4--------------|----------1-0----------|
C|-----0-8--7-0--3-0-|-0-0--0-0--8-0--7-3-|-----0-8--7-0--3-0|-0-0--0-0-----0--5-3-0-|
Bridge -
D|-----------------|-----------------|-----------------|-------|
A|-----------------|-----------------|-----------------|-------|
F|-----------------|-----------------|-----------------|-------|
C|-----------------|-----------------|-----------------|-------|
G|-1-0---1-0---1-0-|-1-0----0---0----|-1-0---1-0---1-0-|--1-0--|
C|-1-0---1-0---1-0-|-1-0----0---0----|-1-0---1-0---1-0-|--1-0--|
Chorus - 
D|-----------------|---------------------------|--------------------------|----------------------|
A|-6-6-6-6-6-6-6/8-|--10-10-10-10-10-10--13-13-|--10-10-10-10-10-10-10-10-|--8-8-8-8-8--10-10-10-|
F|-x-x-x-x-x-x-x/x-|---x--x--x--x--x--x---x--x-|---x--x--x--x--x--x--x--x-|--x-x-x-x-x---x--x--x-|
C|-4-4-4-4-4-4-4/6-|---8--8--8--8--8--8--11-11-|---8--8--8--8--8--8--8--8-|--6-6-6-6-6---8--8--8-|
G|-----------------|---------------------------|--------------------------|----------------------|
C|-----------------|---------------------------|--------------------------| ---------------------|
D|-----------------|---------------------------|--------------------------|--------------------------|
A|-6-6-6-6-6-6-6/8-|--10-10-10-10-10-10--13-13-|--10-10-10-10-10-10-10-10-|--10-10-10-10-10-10-10-10-|
F|-x-x-x-x-x-x-x/x-|---x--x--x--x--x--x---x--x-|---x--x--x--x--x--x--x--x-|---x--x--x--x--x--x--x--x-|
C|-4-4-4-4-4-4-4/6-|---8--8--8--8--8--8--11-11-|---8--8--8--8--8--8--8--8-|---8--8--8--8--8--8--8--8-|
G|-----------------|---------------------------|--------------------------|--------------------------|
C|-----------------|---------------------------|--------------------------|--------------------------|
D|-----------------|---------------------------|--------------------------|----------------------|
A|-6-6-6-6-6-6-6/8-|--10-10-10-10-10-10--13-13-|--10-10-10-10-10-10-10-10-|--8-8-8-8-8--10-10-10-|
F|-x-x-x-x-x-x-x/x-|---x--x--x--x--x--x---x--x-|---x--x--x--x--x--x--x--x-|--x-x-x-x-x---x--x--x-|
C|-4-4-4-4-4-4-4/6-|---8--8--8--8--8--8--11-11-|---8--8--8--8--8--8--8--8-|--6-6-6-6-6---8--8--8-|
G|-----------------|---------------------------|--------------------------|----------------------|
C|-----------------|---------------------------|--------------------------|----------------------|
D|-----------------|----------------------|--------------------------|--------------------------|
A|-6-6-6-6-6-6-6/8-|-10-10-10-10--8-8-8-8-|--10-10-10-10-10-10-10-10-|--10-10-10-10-10-10-10-10-|
F|-x-x-x-x-x-x-x/x-|--x--x--x--x--x-x-x-x-|---x--x--x--x--x--x--x--x-|---x--x--x--x--x--x--x--x-|
C|-4-4-4-4-4-4-4/6-|--8--8--8--8--6-6-6-6-|---8--8--8--8--8--8--8--8-|---8--8--8--8--8--8--8--8-|
G|-----------------|----------------------|--------------------------|--------------------------|
C|-----------------|----------------------|--------------------------|--------------------------|
Repeat Verse | Repeat Bridge 2x | Repeat Chorus 
Bridge 2 Pt 1 - Whole thing 4x                                            Cont. Pt 2 - Whole thing 4x
D|----------------------------------|--------------------------------|    |--------------|-------------|
A|----------------------------------|--------------------------------|    |--10~---------|-------------|
F|----------------------------------|--------------------------------|    |------7~--9~--|--10--9~--7~-|
C