Influence Of A Drowsy God Tabs by Stone Sour

 "Influence of a Drowsy God," -Stone Sour
-tabbed by BrianStanek25

Note: If you are looking for the solo, it will be listed at the very end.
Everything else is the rhythm.

Tuning: D#G#C#F#A#D#
------------------------|
         -KEY-          |
   -----------------    |
^   bend                |
h   hammer-on           |
p   pull-off            |
~   vibrato             |             REMEMBER TO RATE
   pinch harmonic      |    It helps others choose the best tab
*   natural harmonic    |
c   continuous picking  |
^() bend to             |
/   slide up to         |
\\  slide down          |
^~  bend up then back   |
------------------------|

Intro x4
D|------------------------------|
A|------------------------------|
F|------------------------------|
C|-------12*-------10-------9---|
G|--7*------------------7*------|
D|------------------------------|

Verse 1 (pay careful attention)x2
D|--------------------------------------------------------------------|
A|--------------------------------------------------------------------|
F|--------------------------------------------------------------------|
C|-9--9-------9------9--9-------9------7--7-------7------7--7-------7-|
G|-7--7-------7------7--7-------7------9--9-------9------9--9-------9-|
D|------0-0-0-------------0-0-0-------------0-0-0-------------0-0-0---|

D|--------------------------------------------------------------------|
A|--------------------------------------------------------------------|
F|--------------------------------------------------------------------|
C|-5--5-------5------5--5-------5------7--7-------7------7--7-------7-|
G|-7--7-------7------7--7-------7------9--9-------9------9--9-------9-|
D|------0-0-0-------------0-0-0-------------0-0-0-------------0-0-0---|

(he does something but the audio is too jumbled to tell, so I just do this)
D|-------------------------|
A|-------------------------|
F|-------------------------|
C|-2-----------------------|
G|---5-3-5-3-2-3-2---2-----|
D|-----------------5---5-3-|

Chorus (just held notes)
D|-----------------------------------------------------------------|
A|-----------------------------------------------------------------|
F|-4------2--------------------4------2---------------------4------|
C|-4------2------5------3------4------2------5------3---6---4------|
G|-2------0------5------3------2------0------5------3---6---2------|
D|---------------3------1--------------------3------1---4----------|

D|-------------------------------------|
A|-/17---------/17----p15--------------|
F|-------/16---------------16----------|
C|-----------------------------17--14~-|
G|-------------------------------------|
D|-------------------------------------|

Verse 2 (slight difference)x2
D|-----------------------------------------------------------------------|
A|-----------------------------------------------------------------------|
F|-----------------------------------------------------------------------|
C|-9--9-------9-------9--9-------9-------7--7-------7-------7--7-------7-|
G|-7--7-------7-------7--7-------7-------9--9-------9-------9--9-------9-|
D|------0-0-0----0-0-0-----0-0-0----0-0-0-----0-0-0----0-0-0-----0-0-0---|

D|-------------------------------------------------------------------------|
A|-------------------------------------------------------------------------|
F|-------------------------------------------------------------------------|
C|------5--5-------5------5--5-------5------7--7-------7------7--7-------7-|
G|------7--7-------7------7--7-------7------9--9-------9------9--9-------9-|
D|0-0-0------0-0-0---0-0-0-----0-0-0---0-0-0-----0-0-0---0-0-0-----0-0-0---|

(again, not too sure exactly what he does here)
D|-------------------------|
A|-------------------------|
F|-------------------------|
C|-2-----------------------|
G|---5-3-5-3-2-3-2---2-----|
D|-----------------5---5-3-|

Chorus
D|-------------------
(Visited 1 times, 1 visits today)

Comments are closed.