Is There Anybody Here chords – The Dear Hunter

 The Dear Hunter - Is There Anybody Here? from Act IV
Colin P.
Capo 1 (sounds in Bb minor)
G6 B7/C       Gm6*    Am/F
e|----3 or 0------2---------3-------1----------------------------------------|
B|----0-----------4---------3-------1----------------------------------------|
G|----0-----------2---------3-------2----------------------------------------|
D|----2-----------4---------5-------3----------------------------------------|
A|----2-----------3---------6-------0----------------------------------------|
E|----3-----------x---------3-------1----------------------------------------|
[verse 1]
Am B7
I lay my body down
Am B7
To rest my weary head
C B7/C
I think I left Someone there;
Am B7
I left myself for dead
[chorus (?)]
Dm G Am Em
Is there anybody here who can tell me where I am
F G G6
Or at least where I have been?
Am
Because I fear Iím lost
B7
And I cannot be found
C E Bb
Again
[interlude]
Am B7 Am B7
e|---------------------------------------------------------------------------|
B|---------------------------------------------------------------------------|
G|---------------------------------------------------------------------------|
D|2------------0-1-0--0-1--------------2----------0-1-0---0--------1-1-4-4-7-|
A|--3-0----0-3-------3----3--------------3-0--0-3-------3------2-2-----------|
E|--------------------------2---2----------------------------2---------------|
[verse 2]
Am B7
I left my soul exposed
Am B7
To frail hands who hold
Am B7
My fate up in the air
Am B7
And through their fingers fall
Am B7
The meaning of it all
Am B7
Down to the floor it goes
[short chorus]
Dm G
So is there anybody here
Dm G
who can tell me where I am (oooh)
[bridge]
C
Waking in the afternoon
Am
A captive in a passive tomb
B
Moments turn to long Decembers
Bb
Stoking fires from dying embers
C
I try To move a limb
Am
But there's a disconnect within
B
A devil in the alchemy
G
A phantom staring back at me,
[chorus]
Dm
It's you
(Dm)                G
So is there anybody here,
Am Em
who can tell me where I am
F G G6
Or at Least where I have been?
Am
Because I fear Iím lost
B
And I cannot be found
C E Bb
again
[bridge]
C
Just waking in the afternoon
Am
A captive in a passive tomb
B
Moments turn to long Decembers
Bb
Stoking fires from dying embers
C Am
I try to move a limb but there's a disconnect within
B
A devil in the alchemy
Bb
A phantom staring back at me
Ab
A pain I simply can't express
Gm6*
From troubles I have long repressed...
C
...and then, there's you
[solo]
Am B7 x a lot
[After Solo]
Am F Am/F E
notes:
during the first verse, sometimes B7/C sounds better than B7. I think Caseyís moving around with
the bass notes between B and C on the piano. Canít quite make it out.
The (Dm) just means itís the same chord carried over from the previous measure
For verse 2, the recording keeps playing that guitar riff. If youíre doing