Its Okay Thats Love acoustic Tabs – Davichi

 Fingerpicking part of the song
Credit to the author of this video: https://www.youtube.com/watch?v=hbe94G3yL6I
CAPO 1
Tuning: Standard
e|----------------------------2---------------------------------------------------------|
B|---------3--------3-----------------------------------3---------3---------------------|
G|-----0------0--------0----------0--------0-------2-------2----------2-----------------|
D|0h2---------------------------------0h2-----2/4---------------------------------------|
A|------------------------------------------------------2------2------------------------|
E|---------3------3--------3------------------------------------------------------------|
e|--------------------------------------------------------------------------------------|
B|---------3--------3----------3--------------3-----------------------------------------|
G|-----0------0--------0----------0--------0-----0--2/4-2-------------------------------|
D|0h2------2-----2---------2----------0h2-----------------------------------------------|
A|--------------------------------------------3-----------------------------------------|
E|--------------------------------------------------------------------------------------|
e|---------2--------3---------2----------------2---------2---------2--------------------|
B|3----------------------------------3--------------------------------3-----------------|
G|---0--------0--------0---------0------0---------0---------0---------------------------|
D|0-----0--------0---------0------------------------------------------------------------|
A|-----------------------------------2------2---------2---------2-----------------------|
E|--------------------------------------------------------------------------------------|
Cm7
e|-----------3--------3---------3-------------------------3-----------------------------|
B|--3-----------3--------3---------3------3-------3-------4-----------------------------|
G|0---0-------------------------------0-----0--------0----3-----------------------------|
D|--2-----2--------2---------2----------------------------5-----------------------------|
A|----------------------------------------3----3----------3-----------------------------|
E|--------------------------------------------------------------------------------------|
e|--------2--------3---------2-----------------2--------2---------2---------------------|
B|3--------------------------------3--3-----------3--------3---------3------------------|
G|---0-------0--------0---------0--------0-----------------------------0----------------|
D|0----0--------0---------0-------------------------------------------------------------|
A|------------------------------------2-----2--------2--------2-------------------------|
E|--------------------------------------------------------------------------------------|
Cm7
e|-------------------------------------3-3----------------------------------------------|
B|3------3-------3---------3----3----4-4-4----------------------------------------------|
G|--0------0-------0---------0---------3-3----------------------------------------------|
D|-------------------------------------5-5----------------------------------------------|
A|3---3-------3---------3------------3-3-3----------------------------------------------|
E|--------------------------------------------------------------------------------------|