Artist: Lars Winnerbäck
Song: Jag Är Hos Dig Igen
Tuning: Standard (EADGBe)
Tabbed: Mattelito


[Intro]

   G                        D/F#                  Em
e|---------------------------------------------------------------------------|
B|----0h1--------1p0-----0-----------0--3--1--0---------0h1---1p0-----0------|
G|----0-------0-------0-----------2--------------------0----------0----------|
D|---------0-------------------0---------------------2-----------------------|
A|---------------------------------------------------------------------------|
E|-3-------------3----------2-----------2---------0--------------------------|
   C                 G      - Direkt till vers härifrån
e|---------------------------------------------------------------------------|
B|-------0--3--1--0----------------------------------------------------------|
G|--0h2--------------0-----0-------------------------------------------------|
D|----------------------0----------------------------------------------------|
A|-3--------3----------------------------------------------------------------|
E|-------------------3-------------------------------------------------------|


[Verse]

G                  D/F#
Som du kanske har förstått,
                Em
jag är hos dig igen.
                         C
Jag försvann ett tag på vägen,
                       G
men jag saknade dina sinnen.
                        D/F#
Det har varit tungt och grått,
              Em
jag är frusen än.
                       C
Det här livet sköljde bort oss
                    G
och vi glömde våra minnen.


[Mellanspel]

   G                        C
e|---------------------------------------------------------------------------|
B|----0h1--------1p0-----0----------0--3--1--0-------------------------------|
G|----0-------0-------0--------0h2--------------0----------------------------|
D|---------0-----------------------------------------------------------------|
A|--------------------------3----------3-------------------------------------|
E|-3-------------3------------------------------3----------------------------|


[Verse]

G                   D/F#
Som du kanske redan vet,
        Em
jag är oslagbar.
                               C
Jag far hellre framåt mot min vilja,
        G
än jag vänder.
                           D/F#
Och du är sval sen blir du het,
                 Em
du har känslorna kvar.
                 C
Dom här väggarna rasar
                       G
och jag undrar vad som händer.


[Chorus]

C           D/F#
Du har dina moln
                   G
och jag kan inte skingra dom.
         D/F#      C
kan inte låta dom va
         D/F#
jag har mina ord
       G
som du sa


[Mellanspel] - Som introt
   G                        D/F#                  Em
e|---------------------------------------------------------------------------|
B|----0h1--------1p0-----0-----------0--3--1--0---------0h1---1p0-----0------|
G|----0-------0-------0-----------2--------------------0----------0----------|
D|---------0-------------------0---------------------2-----------------------|
A|---------------------------------------------------------------------------|
E|-3-------------3----------2-----------2---------0--------------------------|
   C                 G      - Direkt till vers härifrån
e|---------------------------------------------------------------------------|
B|-------0--3--1--0----------------------------------------------------------|
G|--0h2--------------0-----0-------------------------------------------------|
D|----------------------0----------------------------------------------------|
A|-3--------3----------------------------------------------------------------|
E|-------------------3-------------------------------------------------------|


[Verse]

G                   D/F#
Som du kanske redan hört,
                Em
jag blir aldrig klar.
                        C
Du sluter dina ådror om du
                G
sätter dig och väntar.
                     D/F#
Men som d
(Visited 1 times, 1 visits today)