Jaimmes Got A Girl Tabs – You Am I

 Jaimme's Got A Gal - You Am I
Tuning  DADGBe
Riff 1.
D5   G5 G2    G5 E2 E5     
e-------------------------0-----------
b-------------------------0-----------
g-------------------------x-----------
d--0---/5--7-7-7-5--4-2-2----2-2------
a--0---/5--5-5-5-5--2-2-2----2-2------
d--0---/5--5-5-5-5--2-2-2----2-2------
Riff 2.
C9        C*    C9     
E|-------------------|
B|-3-3-3-3-3-0-0-0-3-|
G|-0-0-0-0-0-0-0-0-0-|
D|-2-2-2-2-2-2-2-2-2-|
A|-3-3-3-3-3-3-3-3-3-|
D|-------------------|
Riff 3.
G  Em* C2   C* C9    G* 
e-------------------------
b--3--5--5-3---0-3-3-3--0-
g--0--0--0-0---0-0-0-0--0-
d--x--x--x-x---2-2-2-2--0-
a--5--4--3-3---3-3-3-3--x-
d--5--------------------5-
Intro
Riff 1 x 3
Riff 2 x 1
Verse 1
Riff 1.
Jaimme's got a girl
Riff 1.
Don't think things are gonna be the same
Riff 1.
He aint coming out and drinking tonight
Riff 2. 
Think he's gonna change his name
Verse 2
Riff 1.
We can't work it out.
Riff 1.
He aint punching walls anymore
Riff 1. 
I'm aint gonna wake up now
Riff 2.
Find you on my floor
Chorus
Riff 3.
A game's a game, you don't want it being the same
But you sure aint like you were yesterday
But go on and try it
And if it's true, it just aint my place to say
But you sure aint like you were yesterday.
Go on and try it
Phone sure sounds dead
My pocket sure feel tight
The things I promised not to do with you today
I sure need to tonight
But it's all working out
Just like they said it would be
You aint gonna fall on my floor
From now on it's just we three