Jest taki samotny dom – Budka Suflera chords

wstep: g F c D

glowny riff:
E||-----------------------|------------------------||
H||-----------------------|------------------------||
G||-----------------------|----5-5-5-----3-5-7-----||
D||--3-5---------7--0-3---|----5-5-5-----3-5-7-----||
A||--3-5---------7--0-3---|----3-3-3-----1-3-5-----||
E||--1-3---------5----1---|------------------------||

E||-----------------------|------------------------||
H||-----------------------|------------------------||
G||-----------------------|----5-5-5-----3-5-7-----||
D||--3-5---------7--0-3---|----5-5-5-----3-5-7-----||
A||--3-5---------7--0-3---|----3-3-3-----1-3-5-----||
E||--1-3---------5----1---|------------------------||


I na zakonczenie wstepu:
E||---------------------|---------------------||
H||---------------------|---------------------||
G||----------3--5--7----|----------3--5--7----||
D||----------3--5--7----|----------3--5--7----||
A||----------1--3--5----|----------1--3--5----||
E||---------------------|---------------------||


  g               d    c   Dsus4 D
uderzyl deszcz...
             g       g   c   D
w katedrach drzew...


przejscie:
                        g         F              c          D
E||--------------------|------------------------|------------------------||
H||--------------------|------------------------|------------------------||
G||--------------------|------------------------|------------------------||
D||--------------0--3--|--5---------3-5-7--5-3--|---1-3-5--3-1--0--------||
A||--------------0--3--|--5---------------------|------------------------||
E||-----------------1--|--3---------------------|------------------------||


       g     d     c     Dsus4 D
za witraza...
         g    d    c     Dsus4 D
w szary pyl...


jeszcze raz przejscie i nastepnie glowny riff. Po dwoch razach wchodzi wokal
         g   F   c   D
dorzucam drew...

przejscie i dalej wokal.

     g   F   c   D
zawirowal...
       g   F   c    D5
nad gorami...


E||--------------------------|----------------------------|------------||
H||--------------------------|----------------------------|------------||
G||-----7--5-4---------------|-----7--5-4-----------------|------------||
D||------------7-5-5--7------|------------7-5-5--7--------|--5---------||
A||--5-----------------------|--5-------------------5--8--|------------||
E||--------------------------|----------------------------|------------||


z ostatnimi trzema dzwiekami gitary wchodzi chorek:
a po nocy...

z chorkiem w tle Krzysztof:
znowu szary pusty dom...


         g    F  g    F    C
lecz po nocy...


i konczymy:
            B
E||--------|-------------------------|
H||-----1--|--3---1----------3---1---|
G||--3-----|--------3--------------3-|
D||--------|-------------------------|
A||--------|-------------------------|
E||--------|-------------------------|


F                      C                    G
----------------------|-------------------|-------------------|
--1-------------------|-------------------|-------------------|
-------------3--2-----|--0----------------|-0-----------------|
-------------------3--|-------------------|-------------------|
----------------------|-------------------|-------------------|
----------------------|-------------------|-------------------|
(Visited 1 times, 84 visits today)

Comments are closed.