Josies Song chords – William Fitzsimmons

 ----------------------------------
Josie´s Song - William Fitzsimmons
----------------------------------
:pink92panther
kevin.parmentier@ews-ac.de
Tuning:Standard
Capo: 4th
Chords:
( F )    Em    
e|--0----0----0-----------------------------------------------------------|
B|--1----0----0-----------------------------------------------------------|
G|--0----0----0-----------------------------------------------------------|
D|--2(h)-2----0-----------------------------------------------------------|
A|--3----2----0-----------------------------------------------------------|
E|--3----0----2-----------------------------------------------------------|
Lyrics:
MEASURE
Though I'm not the one who made
The body and the blood
I won't let you down
There's an elemental bond
In us that won't be found
But you're in my heart
I can hear the sound of rain
Falling through the floor
There's a quality of pain
For you she will endure
That measures out her
Love
When you wade in water wide
Without a map to steer
I will comfort you
When you find the other side
I will still be here
To measure out my love...
************************************
| /   slide up
| \   slide down
| h   hammer-on
| p   pull-off
| ~   vibrato
| +   harmonic
| x   Mute note
| b   Bend
| pb  Pre-bend
| br  Bend release
| pbr Pre-bend release
| brb Bend release bend
************************************