Järnspöken Tabs – Kent Vsion 2

 Järnspöken

Capo 8 fret

Jag skriver vilka ackord som ligger i grunden under fingerplockandet 
så vet ni hur man håller handen sen är det bara att plocka rätt 
sträng och byta vid rätt tillfälle, vilket följer ett mönster som ni 
kommer märka. jag brukar även plocka basnoten vid byte av ackord men 
det verkar dem inte göra i studioversionen så jag lämnar det ute, men 
testa det gärna!

Csus4   X33010                  F       133211
C       X32010                  Em      022000
G       320033                  Am      X02210


[Intro]

e|-----------------------------------------------|
B|----1---1-------------------1---1--------------|
G|------0-------0---0-----------0-----0---0------| x2
D|--3-------------2---------3-----------2--------|
A|-----------------------------------------------|
E|-----------------------------------------------|
  (Csus4, C,               Csus4, C)


[Verse]

Dom brände grönan och skolan står där...
e|-----------------------------------------------|
B|----1---1-------------------1---1--------------|
G|------0-------0---0-----------0-----0---0------|
D|--3-------------2---------3-----------2--------|
A|-----------------------------------------------|
E|-----------------------------------------------|
  (Csus4, C,               Csus4, C)



ensam nu... 
e|-----------------------------------------------|
B|--------0----------------------0---------------|
G|------0-------0---0----------0-------0---0-----|
D|----2-----------2----------2-----------2-------|
A|-----------------------------------------------|
E|--0----------------------0---------------------|
   Em


Cykelställen står tomma än, trots att... 
e|-----------------------------------------------|
B|--------1----------------------3---------------|
G|------2-------0---0----------2-------0---0-----|
D|----3-----------2----------2-----------0-------|
A|-------------------------0---------------------|
E|--1--------------------------------------------|
   F,     C,              Am,    G


loven är slut...
e|-----------------------------------------------|
B|--------1--------------------1---1-------------|
G|------2-------0---0------------0-----0---0-----|
D|----3-----------2----------3-----------2-------|
A|-----------------------------------------------|
E|--1--------------------------------------------|
   F,     C,                Csus4, C

[Detta mönster repeteras över all text i verserna,
härnäst kommer då alltså med samma gitarrspelande]:

Dom fäller kastanjeträden i allén framför skolgården
Och jag rör mig tyst hör inte hemma här, jag är vålnaden

Jag vet inte varför, men kanske är det därför jag minns det så väl
Dina stora ögon, dina bruna händer, dina vassa knän


[Refrain]

Var det dig jag såg, som en skugga ur mina
e|-----------------------------------------------|
B|--------1------------------------1-------------|
G|------2-------2---2------------0-----2---2-----|
D|----3-----------3------------0---------2-------|
A|-----------------------------------------------|
E|--1------------------------3-------------------|
    F,                      G,    Am

drömmar
e|-----------------------------------------------|
B|--------1--------------------1---1-------------|
G|------2-------0---0------------0-----0---0-----|
D|----3-----------2----------3-----------2-------|
A|-----------------------------------------------|
E|--1--------------------------------------------|
    F,    C,                Csus4, C

[Detta mönster repeteras under refrängerna]

Var det dig jag såg, dig jag svor att aldrig glömma


[Verse]

Dom brände grönan och skolan står där ensam nu
Cykelställen står tomma än, trots att loven är slut
Dom fäller kastanjeträden i allén framför skolgården
Och jag rör mig tyst hör inte hemma här, jag är vålnaden

Jag vet inte varför, men kanske är det därför jag minns det så väl
Dina stora ögon, dina bruna händer, dina vassa knän


[Refrain]

Var det dig jag såg, som en skugga ur mina drömmar
Var det dig jag såg, dig jag svor att aldrig gl