Just Tell Me Why Tabs by The Treatment

 The Treatment
   -    Just Tell Me Why

 Michael Lewis
   -    Twitter: @MyCool_Lewis

YouTube cover of this song:


Notes:
   -    Rhythms for Gtr.1 and 2 will not always be aligned 
   - Tune down one half step


   Main Riff
eb|--------------------3------3-----------------|
Bb|---------------------------------------------|
Gb|-7-----5/7--5/7------------------------------|
Db|-7-----5/7--5/7--5-(5)--5-(5)----------------|
Ab|-5---0-3/5--3/5--3-(3)--2-(2)--2-3p2---------|
Eb|-------------------------------------3-------|
  |     .
eb|--------------------3------3-----------------|
Bb|---------------------------------------------|
Gb|-7-----5-7--5-7--5------4------4-5p4---------|
Db|----/7------------------------------5--------|
Ab|---------------------------------------------|
Eb|---------------------------------------------|

   Pre-Chorus (Do you even know me...)
eb|------------------------|--------------------|
Bb|------------------------|--------------------|
Gb|---------5---7----------|--------------------|
Db|-3---5---5---7---3---5--|-7------------------|
Ab|-3---5---3---5---3---5--|-7------------------|
Eb|-1---3-----------1---3--|-5------------------|
  
eb|------------------------|---------------------|
Bb|------------------------|---------------------|
Gb|-5h7-7-7--7-5h7-7-7-etc.|-2-2-2-2-7-7-6-6-6-6-|
Db|------------------------|-------------7-7-7-7-|
Ab|------------------------|---------------------|
Eb|------------------------|---------------------|

   Chorus
eb|---------------------------------------------|
Bb|---------------------------------------------|
Gb|-7--------------------3---5------------------|
Db|-7----3---3---3---5---3---5------------------|
Ab|-5----3---3---3---5---1---3------------------|
Eb|----0-1-0-1-0-1---3--------------------------|
  |    . . . . . 
eb|---------------------------------------------|
Bb|---------------------------------------------|
Gb|-7-7-7-7-7-5-5-5-5-5-4-4-4-4-3-3-5-5---------|
Db|---------------------------------------------|
Ab|---------------------------------------------|
Eb|---------------------------------------------|

   Chorus end
eb|---------------------------------------------|
Bb|---------------------------------------------|
Gb|-3---5---------------------------------------|
Db|-3---5---5-----------------------------------|
Ab|-1---3---5-----------------------------------|
Eb|---------3-----------------------------------|
  |
eb|---------------------------------------------|
Bb|---------------------------------------------|
Gb|-3---3---5-5---------------------------------|
Db|--------------5------------------------------|
Ab|---------------------------------------------|
Eb|---------------------------------------------|

   Fill Solo
eb|------------------------------------------------------|
Bb|-13fb-13-13fb--13-13fb--------------------------------|
Gb|-----------------------12fb-12rp10-12--10-------------|
Db|------------------------------------------12----10h12-|
Ab|---------------------------------------------12-------|
Eb|------------------------------------------------------|
                                              .  .  .  
   Bridge (I wanna, I need to hear...)
eb|---------------------------------------------|
Bb|---------------------------------------------|
Gb|-3-3-3-3-6-6-6-6-7-7-9-9-10-10-2-2-----------|
Db|-3-3-3-3-7-7-7-7-7-7-9-9-10-10-2-2-----------|
Ab|-1-1-1-1-4-4-4-4-5-5-7-7--8--8-0-0-----------|
Eb|---------------------------------------------|
  |
eb|---------------------------------------------|
Bb|---------------------------------------------|
Gb|---------------------------------------------|
Db|---------------------------------------------|
Ab|-1-1-1-1-4-4-4-4-5-5-7-7--8--8-0-0-----------|
Eb|---------------------------------------------|

   Bridge end
eb|------------------
(Visited 1 times, 1 visits today)

Comments are closed.