Kissin Dynamite Tabs – AC/DC V2

 -------------------------------------------------------------------------------
                             Kissin Dynamite - AC/DC
-------------------------------------------------------------------------------
: jothunder

Tuning: Standard

Disclaimer: This tab does not contain the guitar solo!

-------------------------------------------------------------------------------
    LEAD GUITAR

INTRO

e|------------------------------------------------------------------|
B|---5---------------3-x-3-----------5---------------3-x-3/-5-------|
G|---4---------------2-x-2-0---------4---------------2-x-2/-4-------| Play
D|-------------------------0----------------------------------------|  2x
A|-2---------------2---------------2---------------2----------------|
E|------------------------------------------------------------------|


VERSE

e|------------------------------------------------------------------|
B|-------------------------8----------------------------------------|
G|---9---------------7-x-7-7---------9---------------7-x-7/-9-------|
D|-9-9-------------9-7-x-7-5-------9-9-------------9-7-x-7/-9-------|
A|-9-7-------------9-5-x-5---------9-7-------------9-5-x-5/-7-------|
E|-7---------------7---------------7---------------7----------------|

e|-----------------------------------------------------------------|
B|-------------------------8-------------------------------8-------|
G|---9---------------7-x-7-7---------9---------------7-x-7-7-------|
D|-9-9-------------9-7-x-7-5-------9-9-------------9-7-x-7-5-------|
A|-9-7-------------9-5-x-5---------9-7-------------9-5-x-5---------|
E|-7---------------7---------------7---------------7---------------|

e|---------------------------------------|      \
B|---------------------------------------|       |
G|-------------------------------2-x-----| Play  |
D|-3\2-0p-------2-x---3\2-0p-----2-x-----|  3x   |
A|----------2---2-x------------2-0-x-----|       |
E|--------------0-x----------------------|       |
                                                 |- Play 2x
e|-------------------|                           |
B|-----3-------------|                           |
G|-----2-----2-------| Play                      |
D|-3\2-0-----2-------|  2x                       | 
A|-----------0-------|                           |
E|-------------------|                          /


REFRAIN

e|-----------------------------------------------------------------|
B|-----------------------------------------------------------------|
G|-4-4-4-4-4-4-4-4-4-4-4-4-4-4-4-4-1-1-1-1-1-1-1-1-1-1-1-1-1-1-1-1-|
D|-5-5-5-5-5-5-5-5-5-5-5-5-5-5-5-5-2-2-2-2-2-2-2-2-2-2-2-2-2-2-2-2-|
A|-5-5-5-5-5-5-5-5-5-5-5-5-5-5-5-5-2-2-2-2-2-2-2-2-2-2-2-2-2-2-2-2-|
E|-3-3-3-3-3-3-3-3-3-3-3-3-3-3-3-3-0-0-0-0-0-0-0-0-0-0-0-0-0-0-0-0-|

e|-------------------------------------------------------------------|
B|-4-4-4-4-4-4-4-4-4-4-4-4-4-4-4-4-4-4-4-4-4-4-4-4-------------4-4-x-|
G|-4-4-4-4-4-4-4-4-4-4-4-4-4-4-4-4-4-4-4-4-4-4-4-4-------------4-4-x-|
D|-4-4-4-4-4-4-4-4-4-4-4-4-4-4-4-4-4-4-4-4-4-4-4-4-------------4-4-x-|
A|-2-2-2-2-2-2-2-2-2-2-2-2-2-2-2-2-2-2-2-2-2-2-2-2-------------2-2-x-|
E|-------------------------------------------------------------------|


VERSE

e|------------------------------------------------------------------|
B|-------------------------8----------------------------------------|
G|---9---------------7-x-7-7---------9---------------7-x-7/-9-------|
D|-9-9-------------9-7-x-7-5-------9-9-------------9-7-x-7/-9-------|
A|-9-7-------------9-5-x-5---------9-7-------------9-5-x-5/-7-------|
E|-7---------------7---------------7---------------7----------------|

e|-----------------------------------------------------------------|
B|-------------------------8-------------------------------8-------|
G|---9---------------7-x-7-7---------9---------------7-x-7-7-------|
D|-9-9-------------9-7-x-7-5-------9-9-------------9-7-x-7-5-------|
A|-9-7-------------9-5-x-5---------9-7-------------9-5-x-5---------|
E|-7---

Comments are closed.