Land Of Snow And Sorrow intro Tabs – Wintersun Vsion 1

 -------------------------------------------------------------------------------
                             Land of Snow and Sorrow - Wintersun
-------------------------------------------------------------------------------
: Kakku
Tuning: EADGBE (Normal)

All the way till first verse.

h   = Hammer on
p   = Pull off
/   = slide
(x) = To play or not to play..
~   = Awesome


e|---------------------------------------------------------------------------|
B|---------------------------------------------------------------------------|
G|---------------------------------------------------------------------------|
D|---------------------------------------------------------------------------|
A|-1--1-3-3-----1-1-3-4-4----1--4-6-6----1-1-6-8-8---------------------------|
E|---------------------------------------------------------------------------|

e|---------------------------------------------------------------------------|
B|---------------------------------------------------------------------------|
G|---------------------------------------------------------------------------|
D|---------------------------------------------------------------------------|
A|-1--1-3-3-----1-1-3-4-4----1--4-6-6----1-1-8-9-9---------------------------|
E|---------------------------------------------------------------------------|

e|---------------------------------------------------------------------------|
B|---------------------------------------------------------------------------|
G|---------------------------------------------------------------------------|
D|---------------------------------------------------------------------------|
A|-1--1-3-3-----1-1-3-4-4----1--4-6-6----1-1-6-8-8---------------------------|
E|---------------------------------------------------------------------------|

e|---------------------------------------------------------------------------|
B|---------------------------------------------------------------------------|
G|---------------------------------------------------------------------------|
D|---------------------------------------------------------------------------|
A|-1--1-3-3-----1-1-3-4-4----1--4-6-6----1-1-8-9-9---(1)---------------------|
E|---------------------------------------------------------------------------|


e|---------------------------------------------------------------------------|
B|---------------------------------------------------------------------------|
G|---------------------------------------------------------------------------|
D|-3h6-6----6p3-6----6-8-10----10s11-11-11----3h6-6----6-5-3----6-8-10-------|
A|---------------------------------------------------------------------------|
E|---------------------------------------------------------------------------|

e|---------------------------------------------------------------------------|
B|---------------------------------------------------------------------------|
G|-------------------------10-13-13---13-10-13---13-15-17---17-18-18b20------|
D|--11/13-13-13h16-16-15-----------------------------------------------------|
A|---------------------------------------------------------------------------|
E|---------------------------------------------------------------------------|

e|---------------------------------------------------------------------------|
B|----------------------------------------14-16-16~--------------------------|
G|-10-13-13---13-12h13p12-10---13-15-17--------------------------------------|
D|---------------------------------------------------------------------------|
A|---------------------------------------------------------------------------|
E|---------------------------------------------------------------------------|

\,,/ 

Repeat 3x:
_________________________________________________________________________________

e|---------------------------------------------------------------------------|
B|---------------------------------------------------------------------------|
G|-----------------
(Visited 1 times, 1 visits today)

Comments are closed.