Life Force – End Credits Tabs – Misc Computer Games Vsion 2

 #----------------------------------PLEASE NOTE---------------------------------#
#This file is the author's own work and represents their interpretation of the #
#song. You may only use this file for private study, scholarship, or research. #
#------------------------------------------------------------------------------##
Life Force (NES) - Credits
Gtr I (E A D G B E) - 'Crystal'
Gtr II (E A D G B E) - 'Strings'
Gtr III (E A D G B E) - 'Sawtooth'
Gtr I
|--3--|
H     H       +Q    Q   Q   Q     H     H       +Q    Q   E  E  E
|-20----------|-------------------|-------17----|-(17)---------17-22----|
|-------20----|-(20)--17--18--20--|-------------|-----------19----------|
|-------------|-------------------|-19----------|-------19--------------|
|-------------|-------------------|-------------|-----------------------|
|-------------|-------------------|-------------|-----------------------|
|-------------|-------------------|-------------|-----------------------|
H     H       +Q    Q   Q   Q     H     H       H     H
|-20----------|-------17--25--22--|-24----23----|-22----21----|
|-------18----|-(18)--------------|-------------|-------------|
|-------------|-------------------|-------------|-------------|
|-------------|-------------------|-------------|-------------|
|-------------|-------------------|-------------|-------------|
|-------------|-------------------|-------------|-------------|
|--3--|
H     H       +Q    Q   Q   Q     H     H       +Q    Q   E  E  E
|-20----------|-------------------|-------17----|-(17)---------17-22--|
|-------20----|-(20)--17--18--20--|-------------|-----------19--------|
|-------------|-------------------|-19----------|-------19------------|
|-------------|-------------------|-------------|---------------------|
|-------------|-------------------|-------------|---------------------|
|-------------|-------------------|-------------|---------------------|
H     H       +Q    Q   Q   Q     H     H       H     H
|-20----------|-------17--25--22--|-24----23----|-22----21----|
|-------18----|-(18)--------------|-------------|-------------|
|-------------|-------------------|-------------|-------------|
|-------------|-------------------|-------------|-------------|
|-------------|-------------------|-------------|-------------|
|-------------|-------------------|-------------|-------------|
Gtrs I, II
Q   Q   Q   Q     Q   Q   Q   Q     Q.    S  S  H        Q.    S  S  H
|-----------------|-----------------|--------------------|--------------------|
|-20--18----------|-----------------|--------------------|--------------------|
|---------20--18--|-----------------|-------------17-----|--------------------|
|-----------------|-21--19--17------|----------17--------|-17-----------------|
|-----------------|-------------20--|-19----20-----------|-------20-19-20-----|
|-----------------|-----------------|--------------------|--------------------|
|
| Gtrs II, III
|  Q   Q   Q   Q     Q   Q   Q   Q     H        E  Q  E     H        E  Q  E
|-----------------|-----------------|--------------------|--------------------|
|-----------------|-----------------|--------------------|--------------------|
|--8--------------|-----------------|--------------------|--------------------|
|-----11---9---7--|-----------------|--------------------|--------------------|
|-----------------|-10---8----------|----------11-10--8--|--7-----------------|
|-----------------|---------11---9--|--8-----------------|----------10--8--6--|
Q.    S  S  Q   Q     Q.    S  S  E  Q   E
|---------------------|-----------------------|
|---------------------|-17-------17-19-----19-|
|-------------17--19--|-------19-------19-----|
|----------17---------|-----------------------|
|-19----20------------|-----------------------|
|---------------------|-----------------------|
|
|  Q