Long Way Down intro Tabs – One Direction

 ----------------- LONG WAY DOWN - One Direction -----------------

: lukeypookieee

Email: slipknuts 

Tuning: Standard

this is my first tab, im pretty sure this is 100% correct!

Intro:

e|--0---0---3---3---5---5----------------------------------------|
B|--------------------------1---1--------------------------------|
G|---------------------------------------------------------------|
D|---------------------------------------------------------------|
A|---------------------------------------------------------------|
E|---------------------------------------------------------------|

e|---------------------------------------------------------------|
B|--1---1---3---3---5---5----------------------------------------|
G|--------------------------2---2--------------------------------|
D|---------------------------------------------------------------|
A|---------------------------------------------------------------|
E|---------------------------------------------------------------|



| /  slide up
| \  slide down
| h  hammer-on
| p  pull-off
| ~  vibrato
| +  harmonic
| x  Mute note

(Visited 1 times, 1 visits today)

Comments are closed.