Lose Sight Of You chords – Radiator Hospital

 Key: A#
[Main Riff] played throughout the song
e|--------------------
B|------------------3-
G|---4--4-4-4--4-2s4--
D|-5-----5-5--5-------
A|--------------------
E|--------------------
Or,
e|--------------------
B|--------------------
G|---4--4-4-4--4-2s4-7-
D|-5-----5-5--5-------
A|--------------------
E|--------------------
[Intro]
 G
[Verse]
 G Em G
When I saw you from across the room
 G Em G
I didn’t care about your name.
 G Em G
No this ain’t another love affair.
 G Em G
You know I don’t want to play the game.
 G Em G
Even when I said I liked your band,
 G Em G
I didn’t give a second glance.
 G Em G
Now my eyes keep on meeting your eyes,
 G Em G
and though I’d love to, I can’t look away. I don’t have a chance.
 G Em G
I’m not trying to take you home, but don’t want to lose sight of you.
 G Em G
I’m not trying to take you home, but don’t want to lose sight of you.
 G Em G
I’m not trying to take you home, but don’t want to lose sight of you.
 G Em
No I’m not trying to take you home, but don’t want to lose sight of you.
[Outro]
 G Em G
(still trying to figure out the solo at the end)