Lost Not Forgotten intro Tabs – Dream Theater Vsion 2

 -------------------------------------------------------------------------------
                             Lost Not Forgotten - Dream Theater
------------------------------------------------------------------------------


Tuning: D Standard
D|---------------------------------------------------------------|  Part A
A|---------------------------------------------------------------|  X2
F|--9-13-13-----16 17-16-14-----16-13-10-9----9 10 9 7-------12--|
C|--------------------------------------------------------8------|
G|--7-11-11-----14-15-14-12-----14-11-8-7-----7-8-7-5--------10--|
D|--------------------------------------------------------6------|

D|-------------------------------------------------------------------|
A|-------------------------------------------------------------------|
F|--9-13-13-----14-17-20-20-----17-16-13-16---------11-11------10-10-|
C|--------------------------------------------9-10-----------8-------|
G|--7-11-11-----12-15-18-18-----15-14-11-14---------9--9-------8--8--|
D|--------------------------------------------7--8-----------6-------|

D|-------------------------------------------------------------------|  Part B
A|-------------------------------------------------------------------|  X1
F|-------------------------------------------------------------------|
C|-------------------------------------------------------------------|
G|--2222--222--2222--2222--2222--222---222222--222--2222--2222-------|
D|--0000--000--0000--0000--0000--000---000000--000--0000--0000-------|

D|---------------------------------------------------------------|
A|---------------------------------------------------------------|
F|---------------------------------------------------------------|
C|---------------------------------------------------------------|
G|--------7-------5-2-----2222--222--2222--2222--2222--222--22---|
D|--0-4-5---0-1-4-----1---0000--000--0000--0000--0000--000--00---|

D|----------------------------------------------------------------------|
A|----------------------------------------------------------------------|
F|------4---------------------------5h7p5---5-7-9p7-5-------------------|
C|--------------------6-------6-7-9-------9-----------9-7-6-------------|
G|--5-7---7-5-7-5-7-8---8-7-8-------------------------------8-7-5-------|
D|----------------------------------------------------------------7-5-4-|

D|--------------------------|
A|--------------------------|
F|--------------------------|
C|--------------------------|
G|----9-----7-----5-----3---|
D|--8---8-6---6-4---4-2---2-|

D|----------------------18----14--------------------|  Part C
A|----------------17--------------- 15--------------|  X2
F|----------15-------15----11------------ 15--------|
C|----14-------14--------------- 12--------------16-|
G|-------13--------------------------- 13-----------|
D|-12--------------------------------------- 14-----|

D|----------------------18----21----17----13-------------------|
A|----------------17----------------------------14-------------|
F|----------15-------15----18----14----10-------------14-------|
C|----14-------14----------------------------11-------------15-|
G|-------13----------------------------------------12----------|
D|-12----------------------------------------------------13----|

D|------------------------------------------------------------------------------181818----|
A|-------------------------------------------------171717--------202020-------------------|
F|--------121212--------151515--------181818-----------------------------151515-----------|
C|-------------------------------------------141414--------171717-------------------------|
G|-101010--------131313--------161616-----------------------------------------------------|
D|----------------------------------------------------------------------------------------|

D|-------18-21p18----------------------------------------------13-16p13--------------------------------------|
A|----20----------20--------------------------