Lucky One intro Tabs – Simple Plan Vsion 2

 -------------------------------------------------------------------------------
                             Lucky One - Simple Plan
-------------------------------------------------------------------------------
: spvale
 valentinatom@live.it

Capo on 4th

Intro:

e|---------------------------------------------------------------------------|
B|-----------0-----------------0-----------------0-----------------0---------|
G|-----0--------0--------0--------0--------0--------0--------0--------0------|
D|--2-----2--------2--0-----0--------0--2-----2--------2--0-----0--------0---|
A|--2-----------------2-----------------3-----------------2------------------|
E|--0-----------------3-----------------0-----------------3------------------|

------------------------------------------------------------------------------

This is the "mini-solo" at the end of any chorus: 

e|---------------------------------------------------------------------------|
B|--1--0--------------1--0---------------------------------------------------|
G|--0-----2-----0--2--------2------------------------------------------------|
D|--0--------4---------------------------------------------------------------|
A|--2------------------------------------------------------------------------|
E|--3------------------------------------------------------------------------|

Please guys correct me if I'm wrong, it's my first tab :D
(Visited 1 times, 1 visits today)

Comments are closed.