Masters Apprentices Tabs – Opeth Vsion 2

 Song: Master's Apprentices
Opeth
Deliverance
Jonas Svarholt
This tab is 100% right.
Source: Opeth live videos on youtube.
Riff 1 (Intro & Verse)
|-------------------------------------|
|-------------------------------------|
|-------------------------------------|
|-3--2---x--2--2--2--2--3-----/6--7---|
|-3--2---x--2--2--2--2--3-------------|
|-1--0---x--0--0--0--0--1--0--/4--5---|
|---------------------------------------------------|
|---------------------------------------------------|
|---------------------------------------------------|
|-2-2---3--2---x--2--2--2--2--3-------6--7--10--2-2-|
|-2-2---3--2---x--2--2--2--2--3-----------------2-2-|
|-0-0---1--0---x--0--0--0--0--1--0---/4--5--8---0-0-|
Riff 2 ("The sickness in me...")
|----------------------------------------------------------------|
|----------------------------------------------------------------|
|----------------------------------------------------------------|
|-9--9---9-x--9--9---9-x--9--9---7\6-6-6--15-15-15-15-15-15------| 4x
|-9--9---9-x--9--9---9-x--9--9---7\6-6-6--15-15-15-15-15-15------|
|-7--7---7-x--7--7---7-x--7--7---5\4-4-4--13-13-13-13-13-13------|
Riff 3 ("There is a home I am deserting...")
|----------------------------------------------------------|
|----------------------------------------------------------|
|----------------------------------------------------------|
|-3--2---x--2--2--2--2-------------------------------------|x1
|-3--2---x--2--2--2--2----------------6--------6-----------|
|-1--0---x--0--0--0--0--1--0--1/4--5-----0--8-----5--------|
Riff 4 ("Death!...")
(Mikael)
|----------------------------------------------------------|
|----------------------------------------------------------|
|----------------------------------------------------------|
|------------5--6------------------------------------------|
|---------------------------------8-----6/5----------------|
|-1--0--0-0--3--4--0-3-4-6-7--6-7---6-7------7-6-3h6--0----|
(Peter)(Play the first time like Mikael, then play as written down below)
|-----------------------------------------------------------|
|-----------------------------------------------------------|
|-----------------------------------------------------------|
|------------5--6-------------------------------------------|
|---------------------------------8-----6/5-----------------|
|-4--0--0-0--3--4--0-3-4-6-7--6-7---6-7-------7-6-3h6--0----|
Riff 5 (Both guitars)
|----------------------------------------------------------------|
|----------------------------------------------------------------|
|----------------------------------------------------------------|
|------------2-----2------6---6---------------------6------------|
|-/7-6-------2-----2--------0---0--/7-6-------------------5------|
|-/8-7--0-0--0--0--0--3/4----------/8-7--0-0--/6--5---5/4---4/3--|
Riff 6
(Peter) ("I hold my breath and wait")
|------------------------------------------------------------|
|------------------------------------------------------------|
|------------------------------------------------------------|
|-----------------------------------------------6--9--12------|4x
|-2-2-2--2--2--2-2--2-2---2-1-0------------------------------|
|-0-0-0--0--0--0-0--0-0----------1--0--/6--0-0--4--7--10-----|
BACKBEAT LEAD (Mikael)
|-----------------------------------------|
|-----------------------------------------|
|-----------------------------------------|2x
|-------6-----9--7-----7------------------|
|-7--8-----7--------8------8--7--6--7-----|
|--------------------------------------7--|
Riff 7 (Both guitars)
|-----------------------------------------------|
|-----------------------------------------------|
|-----------------------------------------------|
|-5-5--7-7-7--9-9-9--10-10-10--12-12-12--13-14--|1x
|-----------------------------------------------|
|-3-3--5-5-5--7-7-7--8--8--8---10-10-10--11-12--|
Riff 8 ("Soothing trance...")
Chords in order: