-------------------------------------------------------------------------------
                             MEMORY (Undertale OST) - Toby Fox
-------------------------------------------------------------------------------
: Antonio Pacheco

Tuning: Standard (EAGDBe)
Capo on 7th fret

e|----3-1---0--0--1-----1---0--0--1---3-1---0--0--1-----1-5-3--1--3|
B|--1-----1---1-------1---1---1-----1-----1---1-------1------------|
G|-----------------------------------------------------------------|
D|----0---0---0---0---0---0---0---0---0---0---0---0---0---0---0---0|
A|-----------------------------------------------------------------|
E|-----------------------------------------------------------------|

e|----3-1---0--0--1-----1---0--0--1---3-1---0--0--1-----1-5-3--1--3|
B|--1-----1---1-------1---1---1-----1-----1---1-------1------------|
G|----------------------------------------------------0---0---0---0|
D|-----------------------------------------------------------------|
A|----0---0---0---0---0---0---0---0---0---0---0---0----------------|
E|-----------------------------------------------------------------|