Moonlight And Gold chords – Gerry Rafferty

 https://www.youtube.com/watch?v=--stv5FNXZs
[Intro]
0:19
Gm C Gm C 
e-------------|------------|-----------|-----------|
B-------------|------------|-----------|-----------|
G-------3-3-3-|------5-5-5-|-----7-7-7-|-----9-9-9-|
D---5-5-------|--5-5-------|-5-5-------|-5-5-------|
A-------------|------------|-----------|-----------|
E-------------|------------|-----------|-----------|
F Dm Gm Eb Bb C 
e--------------|--------------|-----------|-----------|--------------|
B-------6------|--------------|-----------|-----------|--------------|
G--7-9---5-5-5-|--7-8-7-------|-----------|-------8---|-7--3---5h7p7-|
D--------------|--------7-7-7-|-5-7-8-7---|-8-7-5-----|--------------|
A--------------|--------------|-----------|-----------|--------------|
E--------------|--------------|-----------|-----------|--------------|
Gm C Gm C 
e-------------|------------|-----------|-----------|
B-------------|------------|-----------|-----------|
G-------3-3-3-|------5-5-5-|-----7-7-7-|-----9-9-9-|
D---5-5-------|--5-5-------|-5-5-------|-5-5-------|
A-------------|------------|-----------|-----------|
E-------------|------------|-----------|-----------|
F Dm Gm Eb Bb C 
e--------------|--------------|-----------|-----------|--------------|
B-------6------|--------------|-----------|-----------|--------------|
G--7-9---5-5-5-|--7-8-7-------|-----------|-------8---|-7--3---5h7p7-|
D--------------|--------7-7-7-|-5-7-8-7---|-8-7-5-----|--------------|
A--------------|--------------|-----------|-----------|--------------|
E--------------|--------------|-----------|-----------|--------------|
01:15
C Gm C Gm Eb Bb F F C Gm C Gm Eb Bb F F 
[Verse]
F 
Moonlight and gold
Dm C 
Midsummer magic when the night turns to day
Bb 
And songbirds greet the dawn
F 
You lie awake
Dm C    
You watch and wonder while the moon fades away
Bb 
And one more day is born.
[Chorus]
Ebsus2 Cm 
Tides keep on turning, while hearts keep on yearning
Dm Bb C 
To be where they know they belong
Ebsus2 Cm 
All on a new day, you see in a new way
Dm Bb C Bb 
The things you've been leaning upon.
[Verse]
F 
Moonlight and gold
Dm C   
I will awaken to a love that runs deeper
Bb 
Than the need in me.
F Dm C Bb 
[Chorus]
Ebsus2 Cm 
While you are sleeping, the new day comes creeping
Dm Bb C 
And life keeps on passing you by
Ebsus2 Cm 
Magic unfolds when the blue meets the gold
Dm Bb C Bb 
And the sun comes to open your eyes.
[Verse]
F 
Moonlight and gold
Dm C 
Midsummer magic when the night turns to day
Bb 
And songbirds greet the dawn
F 
You lie awake
Dm C    
You watch and wonder while the moon fades away
Bb 
And one more day is born. Oh yeah 
[Outro]
F <spa