Biffy Clyro – Mountains

 Only Revolutions
Tuning: Drop C#/Db

(/) Slide Up  (\) Slide Down  (h) Hammer On  (p) Pull Off  (b) Bend (r) Release (v) Vibrato


[Intro]

Eb|-2-2-----2-2-----2---2-----------2-2---------|
Bb|-3---3---3---3---3-3-3-3-3-------3---3-----3-|
Gb|-4-----4-4-----4-4-4---4-0-------4-----4---0-|
Db|-4-------4-------4-------0-------4-------0-0-|
Ab|-2-------2-------2---------------2-----------|
Db|-------------------------5-----------------5-|


[Verse]

Eb|-------------------------------------|
Bb|-------------------------------------|
Gb|-4-4-4-4-4-4-4-4-4-7-7-7-7-7-7-7-7---|
Db|-0-0-0-0-0-0-0-0-0-0-0-0-0-0-0-7-7---|      x2
Ab|-2-2-2-2-2-2-------------------5-5-0-|
Db|-------------2-2-0-5-5-5-5-5-5-------|

Eb|-------------------------------------|
Bb|-----------------3-3-3-3-3-3-3-------|
Gb|-2-2-2-2-2-2-2-2---------------------|
Db|-2-2-2-2-2-2-----4-4-4-4-4-4-4-7-7-7-|
Ab|-0-0-0-0-0-0-5-5-2-2-2-2-2-2-2/5-5-5-|
Db|-------------------------------------|

Eb|-----------------------------|
Bb|-----------------3-3-3-3-3-3-|
Gb|-2-2-2-2-2-2-2-2-------------|
Db|-2-2-2-2-2-2-----4-4-4-4-4-4-|
Ab|-0-0-0-0-0-0-5-5-2-2-2-2-2-2-|
Db|-----------------------------|


[Chorus]

Eb|--------------------------------------------------------------------|
Bb|-3-3-3--------------------------------------------------------------|
Gb|---------------------------------14-14-14---------------------------|
Db|-4-4-4-0---------7-7-7-7-7-7-7-7-11-11-11-0---------7-7-7-7-7-7-7-7-|
Ab|-4-4-4-0---------5-5-5-5-5-5-5-5-12-12-12-0---------5-5-5-5-5-5-5-5-|
Db|-------0----12\0-0-0-0-0-0-0-0-0-11-11-11-0----12\0-0-0-0-0-0-0-0-0-|

Eb|-------------------------------------------------------------------|
Bb|-------------------------------------------------------------------|
Gb|-14-14-----------------14-14-14---------------------------14-14-14-|
Db|-11-11---9-9-9-9-9-9-9-11-11-11-0---------7-7-7-7-7-7-7-7-11-11-11-|
Ab|-12-12-0-9-9-9-9-9-9-9-12-12-12-0---------5-5-5-5-5-5-5-5-12-12-12-|
Db|-11-11-0-9-9-9-9-9-9-9-11-11-11-0----12\0-0-0-0-0-0-0-0-0-11-11-11-|

Eb|---------------------------------------------------|
Bb|---------------------------------------------------|
Gb|---------------------------14-14-------------------|
Db|-0---------7-7-7-7-7-7-7-7-11-11---9-9-9-9-9-9-9-9-|
Ab|-0---------5-5-5-5-5-5-5-5-12-12-0-9-9-9-9-9-9-9-9-|
Db|-0----12\0-0-0-0-0-0-0-0-0-11-11-0-9-9-9-9-9-9-9-9-|


[Interlude]

Eb|-------------------------------------------------|
Bb|-------------------------------------------------|
Gb|-14-14-14-14-14-14-14-14-14-14-14-14-14-14-14-14-|
Db|-11-11-11-11-11-11-11-11-12-12-12-12-12-12-12-12-|
Ab|-12-12-12-12-12-12-12-12-14-14-14-14-14-14-14-14-|
Db|-------------------------------------------------|

Eb|-------------------------------------|
Bb|-------------------------------------|
Gb|-14-14-14-14-14-14-14-14-14-14-14-14-|
Db|-12-12-12-12-12-12-12-12-12-12-12-12-|
Ab|-10-10-10-10-10-10-10-10-12-12-12-12-|
Db|-------------------------12-12-12-12-|
             X2
Eb|-------------------------------------------------|
Bb|-------------------------------------------------|
Gb|-14-14-14-14-14-14-14-14-14-14-14-14-14-14-14-14-|
Db|-11-11-11-11-11-11-11-11-12-12-12-12-12-12-12-12-|
Ab|-12-12-12-12-12-12-12-12-14-14-14-14-14-14-14-14-|
Db|-------------------------------------------------|

Eb|-------------------------------------------------|
Bb|-------------------------------------------------|
Gb|-14-14-14-14-14-14-14-14-14-14-14-14-14-14-14-14-|
Db|-12-12-12-12-12-12-12-12-12-12-12-12-0--0--0--0--|
Ab|-10-10-10-10-10-10-10-10-12-12-12-12-0--0--0--0--|
Db|-------------------------12-12-12-12-0--0--0--0--|


[Verse]

Eb|-------------------------------------|
Bb|-------------------------------------|
Gb|-4-4-4-4-4-4-4-4-4-7-7-7-7-7-7-7-7---|
Db|-0-0-0-0-0-0-0-0-0-0-0-0-0-0-0-7-7---|     x2
Ab|-2-2-2-2-2-2-------------------5-5-0-|
Db|-------------2-2-0-5-5-5-5-5-5-------|

Eb|-------------------------------------|
B
(Visited 1 times, 1 visits today)