Music To Walk Home By Tabs by Tame Impala V3

                      Tame Impala - Music to Walk Home By
                       from their 2012 album Lonerism

Intro:
The song starts off with some crazy synth sound effects and then goes into...


Chorus:
"But that's only when I think of you,
Some vision that I hold on to,
You know it's everything I do,
You know it's everything I do"
Synth:
e|-10-------8----------10-------8----------10-------8----------10------12----------|
B|-10-------8----------10-------8----------10-------8----------10------12----------|
G|-11-------9----------11-------9----------11-------9----------11------12----------|
D|-12------10----------12------10----------12------10----------12------10----------|
A|-12------10----------12------10----------12------10----------12------------------|
E|-10-------8----------10-------8----------10-------8----------10------------------|


Synth solo:
Synth:
e|------------------------------------------------------------------|
B|-7---8-5---------7---8-5----/13--\12--10--8-------7--8\5------/7--|
G|--------------7------------------------------7--------------------|
D|------------------------------------------------------------------|
A|------------------------------------------------------------------|
E|------------------------------------------------------------------|

Guitar:
e|-10--10-10-10--10-10-10.---8--8--8--.---8--8--8--.---8--8--8----|
B|-10--10-10-10--10-10-10.---8--8--8--.---8--8--8--.---8--8--8----|
G|-11--11-11-11--11-11-11.---9--9--9--.---9--9--9--.---9--9--9----| x3
D|-12--12-12-12--12-12-12.--10-10-10--.--10-10-10--.--10-10-10----|
A|-12--12-12-12--12-12-12.--10-10-10--.--10-10-10--.--10-10-10----|
E|-10--10-10-10--10-10-10.---8--8--8--.---8--8--8--.---8--8--8----|

e|-10--10-10-10--10-10-10.--12-12-12--.--12-12-12--.--12-12-12----|
B|-10--10-10-10--10-10-10.--12-12-12--.--12-12-12--.--12-12-12----|
G|-11--11-11-11--11-11-11.--12-12-12--.--12-12-12--.--12-12-12----|
D|-12--12-12-12--12-12-12.--10-10-10--.--10-10-10--.--10-10-10----|
A|-12--12-12-12--12-12-12.----------------------------------------|
E|-10--10-10-10--10-10-10.----------------------------------------|


Verse:
"Can almost stand competing with the others,
Can almost hear the fun that I should be having,
Instead of just dreaming"
Guitar:
e|-5--5-5--5-5-5-.-5--5-5--5-5-5--5--5-5--5-5-5-.-5--.--3--.--3--.--|
B|-7--7-7--7-7-7-.-5--5-5--5-5-5--7--7-7--7-7-7-.-5--.--5--.--3--.--|
G|-6--6-6--6-6-6-.-5--5-5--5-5-5--6--6-6--6-6-6-.-5--.--5--.--4--.--|
D|-7--7-7--7-7-7-.-7--7-7--7-7-7--7--7-7--7-7-7-.-7--.--5--.--5--.--|
A|-5--5-5--5-5-5-.-7--7-7--7-7-7--5--5-5--5-5-5-.-7--.--3--.--5--.--|
E|-----------------5--5-5--5-5-5------------------5--.--------3--.--|

e|-5--5--5-5.--5-5-5-.--5-5-5-.-5-5-5-.--3--3--3-3.-3-.-3--5.--7.---8----|
B|-7--7--7-7.--5-5-5-.--5-5-5-.-5-5-5-.--3--3--3-3.-3-.-3--5.--7.--10----|
G|-7--7--7-7.--5-5-5-.--5-5-5-.-5-5-5-.--4--4--4-4.-4-.-4--5.--7.--10----|
D|-7--7--7-7.--7-7-7-.--7-7-7-.-7-7-7-.--5--5--5-5.-5-.-5--7.--9.--10----|
A|-5--5--5-5.--7-7-7-.--7-7-7-.-7-7-7-.--5--5--5-5.-5-.-5--7.--9.---8----|
E|-------------5-5-5-.--5-5-5-.-5-5-5-.--3--3--3-3.-3-.-3--5.--7.--------|


Chorus:
"But it's only when I think of you,
The mover I could turn into,
There must be something I can do,
There must be something I can do"
e|-10--10-10-10--10-10-10.---8--8--8--.---8--8--8--.---8--8--8----|
B|-10--10-10-10--10-10-10.---8--8--8--.---8--8--8--.---8--8--8----|
G|-11--11-11-11--11-11-11.---9--9--9--.---9--9--9--.---9--9--9----| x3
D|-12--12-12-12--12-12-12.--10-10-10--.--10-10-10--.--10-10-10----|
A|-12--12-12-12--12-12-12.--10-10-10--.--10-10-10--.--10-10-10----|
E|-10--10-10-10--10-10-10.---8--8--8--.---8--8--8--.---8--8--8----|

e|-10--10-10-10--10-10-10.--12-12-12--.--12-12-12--.--12-12-12----|
B|-10--10-10-10--10-10-10.--12-12-12--.--12-12-12--.--12-12-12----|
G|-11--11-11-11--11-11-11.--12-12-12--.--12-12-12--.--12-12-12----|
D|-12--12-12-12--12
(Visited 1 times, 1 visits today)

Comments are closed.