Need You Now solo Tabs – Lady Antebellum Vsion 6

 Artist: Lady Antebellum
Song: Need You Now
Part of the song: Solo
Wanted to learn the song quickly and easily from tabs. Couldn't find any correct Tabs - so I thought I'd just
spend the time to do it myself.
e|-------------------16b17-16b17b16---------------------16-------16b17b16----------------------------|
B|-17----17----17-------------------17--17--17--17--19-----17-------------19--17--19--19-------------|
G|----16----16----16------------------------------------------19-------------------------------------|
D|---------------------------------------------------------------------------------------------------|
A|---------------------------------------------------------------------------------------------------|
E|---------------------------------------------------------------------------------------------------|
e|-------16------16-------16-------16-~19--21b19--16--19b21--21b19--16--19---------------------------|
B|-19b21---19b21----19b21----19b21-----------------------------------------19b21b19--17--19b21-------|
G|---------------------------------------------------------------------------------------------18-16-|
D|---------------------------------------------------------------------------------------------------|
A|---------------------------------------------------------------------------------------------------|
E|---------------------------------------------------------------------------------------------------|
************************************
| b  Bend
| ~  Vibrato
************************************