Need Your Love So Bad Tabs by Fleetwood Mac V2

 -----------------------------------------------------------------
              Need Your Love So Bad-Fleetwood Mac
-----------------------------------------------------------------

 : Aeonoptic   

12/8

Tuning:EADGBe
Intro:             
E|-------------------|--------------------|--------------------------|
B|----10-12b14b13b14~|----10h12---10------|---------10-12----10~-----|
G|-11----------------|-11-------11----11--|----9/11-------11---------|
D|-------------------|--------------------|-12-----------------------|
A|-------------------|--------------------|--------------------------|
E|-------------------|--------------------|--------------------------|

   
E|-------------------------|--------------------|------12b14---------|
B|----10----12b14-12b14-10~|----10-12br14p10~---|12b14---------14pb12| >B|-10-12-|-----10h12---10----12b14-10~---|---7-10-12-13-14\--------|
  G|-------|--11-------11---11-------------|-------------------------|
  D|-------|-------------------------------|-------------------------|
  A|-------|-------------------------------|-------------------------|
  E|-------|-------------------------------|-------------------------|

End:
E|----------------------------|-----13b15-12-----|---------------------------|
B|----12b14-12p10-12b14-12b14-|--10----------10~-|-10----10-13b15-13-10-10---|
G|-11-------------------------|------------------|----11-------------------11|
D|----------------------------|------------------|---------------------------|
A|----------------------------|------------------|---------------------------|
E|----------------------------|------------------|---------------------------|

E|-13b15-12-10------------------|
B|-------------10---------------|
G|-------------------Fade out---|
D|------------------------------|
A|------------------------------|
E|------------------------------|

| /  slide up
| \  slide down
| h  hammer-on
| p  pull-off
| ~  vibrato
| +  harmonic
| x  Mute note
(Visited 1 times, 1 visits today)

Comments are closed.