The Night We Met Chords version 2 by Lord Huron

Standard Tuning
Capo 2 
F#m                  E               A
e|---------------------------------------------------------------------|
B|------------------------------------------2-----------------2--------|
G|------------2--------------------------2-----2-----------2-----2-----|
D|--------4-------4------------2------2-----------2-----2-----------2--|
A|-----4-------------4------2------0-----------------0-----------------|
E|--2--------------------0---------------------------------------------|
D
e|-----------2-------------------2----------|
B|--------3-----3-------------3-----3-------|
G|-----2------------2------2------------2---|
D|--0-------------------0-------------------|
A|------------------------------------------|
E|------------------------------------------|
[Intro]
F#m E A F#m E D (2x)
[Verse 1]
F#m          E      A
I am not the only traveler 
F#m            E        D
Who has not repaid his debt
F#m              E       A
I've been searching for a trail to follow again 
F#m          E        D
Take me back to the night we met
[Verse 2]
F#m     E     A
And then I can tell myself
F#m       E          D 
What the hell I'm supposed to do
F#m     E      A
And then I can tell myself 
F#m    E         D
Not to ride along with you
[Chorus]
F#m                                   E             A 
I had all and then most of you, some and now none of you
F#m            E        D
Take me back to the night we met 
F#m                            E                      A
I don't know what I'm supposed to do, haunted by the ghost of you
F#m               E        D
Take me back to the night we met
[Verse 3]
F#m        E        A
When the night was full or terror 
F#m        E           D 
And your eyes were filled with tears
F#m      E          A
When you had not touched me yet
F#m        E        D
Take me back to the night we met
[Chorus]
F#m                                   E             A 
I had all and then most of you, some and now none of you
F#m            E        D
Take me back to the night we met 
F#m                            E                      A
I don't know what I'm supposed to do, haunted by the ghost of you
F#m        E        D
Take me back to the night we met