No Secrets solo Tabs – Angels Vsion 1

 -------------------------------------------------------------------------------
No Secrets - The Angels
-------------------------------------------------------------------------------
:Ash105
ashhampton@msn.com
Tuning: Standard
e|--5--------------------|---7---5---3---2------3--|
B|-----------------------|-------------------------|
G|-----------------------|-------------------------|
D|-----------------------|-------------------------|
A|-----------------------|-------------------------|
E|-----------------------|-------------------------|
e|-----------------------|-------------------------|
B|--1~~~~~------3-----0--|-------------------------|
G|-----------------2-----|-------------------------|
D|-----------------------|----2--------------------|
A|-----------------------|-------------------------|
E|-----------------------|-------------------------|
e|--10-------------------|--10---10---8---7-----8--|
B|-----------------------|-------------------------|
G|-----------------------|-------------------------|
D|-----------------------|-------------------------|
A|-----------------------|-------------------------|
E|-----------------------|-------------------------|
e|------------------------|--5-----7--0--10-----12--10--|
B|--8------------7-----7--|-----5-----------8-----------|
G|------------------8-----|-----------------------------|
D|------------------------|-----------------------------|
A|------------------------|-----------------------------|
E|------------------------|-----------------------------|
e|--17-------17----17--15-|--14-----15-------------|
B|------------------------|-------------15-----15--|
G|------------------------|------------------------|
D|------------------------|------------------------|
A|------------------------|------------------------|
E|------------------------|------------------------|
e|------------------------|----------------------------|
B|--16-----17---17~~~-----|--17--16--14--12-----11--9--|
G|------------------------|----------------------------|
D|------------------------|----------------------------|
A|------------------------|----------------------------|
E|------------------------|----------------------------|
e|------------5--7--8--10--12--14--15-|--15~~~-----------------|
B|-8-------8--------------------------|------------------------|
G|------------------------------------|------------------------|
D|------------------------------------|------------------------|
A|------------------------------------|------------------------|
E|------------------------------------|------------------------|
e|--22------20----19--20--|--------------------------|
B|------------------------|--20~~~~------------------|
G|------------------------|--------------------------|
D|------------------------|--------------------------|
A|------------------------|--------------------------|
E|------------------------|--------------------------|
************************************
| /   slide up
| \   slide down
| h   hammer-on
| p   pull-off
| ~   vibrato
| +   harmonic
| x   Mute note
| b   Bend
| pb  Pre-bend
| br  Bend release
| pbr Pre-bend release
| brb Bend release bend
************************************