Norway intro Tabs – The Paper Tigers

 [Intro]
First Tab. Made in 20 mins, Not 100% correct so improvise by listening.
e|---------------------------------------------------------------------------|
B|---------------------------------------------------------------------------|
G|---------------------------------------------------------------------------|
D|---------2--0--2------------2--0--2------------------2--0--2---------------|
A|---3------------------0----------------------------------------------------|
E|-------------------------------------------3-------------------------------|
e|---------------------------------------------------------------------------|
B|---------------------------------------------------------------------------|
G|---------------------------------------------------------------------------|
D|------5-----3----2---0-----------------------------------------------------|   REPEAT 1x
A|---------------------------------------------------------------------------| 
E|---------------------------------------------------------------------------|
[Verse]
Strum each chord 4 times, listen to song for strum pattern.
e|-----x---------------------------------------------------------------------|
B|-----1------------------------8------------------------6-------------------|
G|-----0------------------------7------------------------5-------------------|
D|-----2---------(2-0-2)--------5--------(2-0-2)---------3------(2-0-2)------|   
A|-----3-----------------------(0)-------------------------------------------| 
E|-----x------------------------------------------------(3)------------------|
Strum these chords once each
e|---------------------------------------------------------------------------|
B|---------8----6----5-------------------------------------------------------|
G|---------7----5----4--2--------------(5--3--2--0)--------------------------|
D|---------5----3----2--0----------------------------------------------------|   REPEAT
A|---------------------------------------------------------------------------| 
E|---------------------------------------------------------------------------|
(Note)= Guitar-2 Plays These While Guitar-1 Strums The Chords