Nothings Gonna Change My Love For You solo Tabs – George Benson Vsion 1

 Arrange by:Romulo Manzano Jr
Email:Stylishup@guitar.com

[Intro]

e|-----------2-----------------0------------------------------------------------------|
B|--------3-----3-----------3-----3---------------------------------------------------|
G|-----2-----------2-----2-----------2--tap-------------------------------------------|
D|--0--------0---------0-------0------------------------------------------------------|
A|------------------------------------------------------------------------------------|
E|------------------------------------------------------------------------------------|


[Verse]

1st part
e|-----------------------------------------0---------------------------------------|
B|---------------------------------0--tap-----3--------------------2--2h3--2--tap--|
G|-------2-----2--tap-----2-----2-----------------------2--tap---------------------|
D|-0--4--0--4----------4-----------------------------4----------4--0---------------|
A|---------------------------4-------------4------2--------------------------------|
E|---------------------------------------------------------------------------------|

e|------------------------------------------------------------------------------0--------|
B|----------------------0----------------------------------------------------------2-----|
G|-----------0--0--tap-----------2--tap--------0--0--tap--0h2-----------2--tap--------2--|
D|--4--4----------------------0----------0--2------------------2-----2-------------------|
A|----------------------------------------------------------------0-------------0--------|
E|--------3-------------3--2----------------0-------------0------------------------------|

2nd part
e|-----------------------------------------0---------------------------------------|
B|---------------------------------0--tap-----3--------------------2--2h3--2--tap--|
G|-------2-----2--tap-----2-----2-----------------------2--tap---------------------|
D|-0--4--0--4----------4-----------------------------4----------4--0---------------|
A|---------------------------4-------------4------2--------------------------------|
E|---------------------------------------------------------------------------------|

e|------------------------------------------0--2--3--tap--3/5--0--|
B|----------------------0----------------3------------------------|
G|-----------0--0--tap-----------2--tap---------------------------|
D|--4--4----------------------0-----------------------------------|
A|----------------------------------------------------------------|
E|--------3-------------3--2----------------0-------------0-------|


[Refrain]

e|--------------------------0---------------------------------------------3---2----3---3/5---2--|
B|----0-------2---3--------------3----------------------------------------1 --------------------|
G|----------------------0---------------------------2----2---------2------2---------------------|
D|--------0------------------------------------0--------------0-----------0---------------------|
A|----------------------------------------------------------------------------------------------|
E|----3---------------------0------------2------------------------------------------------------|

e|--------------------------------------------------------------------------------------------------------2--|
B|-----------3---3--------------0--------2---3------------------------2----3------------0---------2--3-------|
G|--------------------0-----------------------------0---------2----------------2------------------------0----|
D|------0-----------------0----------2------------------2--------0-----------------0----------0--------------|
A|-----------------------------------------------------------------------------------------------------------|
E|--3---------------------------0-----------------------------2-------------------------3------------0-------|

e|------------0----------------0--------------0-----------------0--------------|
B|----------------2/3---------------------