Only A Broken Heart solo Tabs – Tom Petty

 ---------------------------------------------------------------------------------------------------------------
Artist - Tom Petty
********************
Song - Only A Broken Heart
****************************
Album - Wildflowers (1994) 
****************************
- Ayreon77
**********************
---------------------------------------------------------------------------------------------------------------
Tuning = Standard
Played on A 12 string Acoustic.
s
e|-------------|----------|-------------------h-----|----h---8--8-|-8-8-10-10--10-10-8-10-10\12-|
B|----------h--|----------|----------s--8--8-8-10-8-|-8-8-10------|-----------------------------|
G|----h--5-5-7-|-5---5--7-|--s----5-5\7-------------|-------------|-----------------------------|
D|-5-5-7-------|---7------|-3\5-7-------------------|-------------|-----------------------------|
A|-------------|----------|-------------------------|-------------|-----------------------------|
E|-------------|----------|-------------------------|-------------|-----------------------------|
s      s 
e|------h-----|----h------|----8-10-10--10-10-8-10-10\12--10\8-------12-10-8-|--------------------------|
B|-8-8-8-10-8-|-8-8-10-10-|-10----------------------------------10-8---------|-----------s--8-8---------|
G|------------|-----------|--------------------------------------------------|--s----5--7\9-----9-7-7-5-|
D|------------|-----------|--------------------------------------------------|-5\7-7--------------------|
A|------------|-----------|--------------------------------------------------|--------------------------|
E|------------|-----------|--------------------------------------------------|--------------------------|
e|-----------------8-|-----------s---8-|
B|----s--8-8-10-8----|----s--8--8\10---|
G|-5-7\9-------------|-5-7\9-----------|
D|-------------------|-----------------|
A|-------------------|-----------------|
E|-------------------|-----------------|
ENJOY.........