Open Up Tabs by Editors

 Editors - Open Up

Tunning: normal

0:16-0:31

e-12--14--9-----12--14--9--7---------|
b------------------------------------|
g------------------------------------|
d------------------------------------|
a------------------------------------|
e------------------------------------|
0:31-1:09

e----------------------------------------------------|
b-10-x8--9-x3--12-x5--7-x8--5-x3--9-x5---------------|       2x
g----------------------------------------------------|
d----------------------------------------------------|
a----------------------------------------------------|
e----------------------------------------------------|

e-------------------------------------------------|
b-10-x8--9-x3--12-x5---7-x8--5-x16----------------|       2x
g-------------------------------------------------|
d-------------------------------------------------|
a-------------------------------------------------|
e-------------------------------------------------|

1:10-1:26

e-12--9--7--------12--14--9--7--------|
b-------------------------------------|
g-------------------------------------|
d-------------------------------------|
a-------------------------------------|
e-------------------------------------|

1:26-2:24

e----------------------------------------------------|
b-10-x8--9-x3--12-x5--7-x8--5-x3--9-x5---------------|       2x
g----------------------------------------------------|
d----------------------------------------------------|
a----------------------------------------------------|
e----------------------------------------------------|

e-------------------------------------------------|
b-10-x8--9-x3--12-x5---7-x8--5-x16----------------|       4x
g-------------------------------------------------|
d-------------------------------------------------|
a-------------------------------------------------|
e-------------------------------------------------|

2:41-2:57

e-12--14--9--7----12--14--9--7----------|
b---------------------------------------|
g---------------------------------------|
d---------------------------------------|
a---------------------------------------|
e---------------------------------------|

2:58-3:40 (not hundred percent sure)

e-17-x12--14-x4-17-x8--12-x8------------|    4x
b---------------------------------------|
g---------------------------------------|
d---------------------------------------|
a---------------------------------------|
e---------------------------------------|
(Visited 1 times, 1 visits today)

Comments are closed.