Out Of Time Tabs – Yuck

 Yuck - Out of Time
 Glow & Behold
 SpacerockSpiff

Standard Tuning - CAPO 2


Main - C Am G F


Verse:
   c           Am    G         F
e|-------------------3---3-------0-----------------|
B|-1-----------1-----0-0-------1---1-------1-------|
G|-0-----0-----2-----0---------2-----2-0/2---2-0---|
D|-2-0/2-------2-----0---------3-------------------|
A|-3-----------------2---------3-------------------|
E|-------------------3-----------------------------|


Chorus:
   G         F
e|-3-----------0-----------------|
B|-0---------1---1-------1-------|
G|-0---------2-----2-0/2---2-0---|
D|-0---------3-------------------|
A|-2---------3-------------------|
E|-3-----------------------------|