Over And Over Again intro Tabs – Nathan Sykes

 Hi! My name is Jack and this is my first ever tab contribution to ultimate guitar.
I looked at the chords for this and I realized that there wasn't a tab for the 
song that suits the melody. So I decided to make up my own tab. This is my first
ever tab so I'm sorry if this isn't 100% accurate.
Thank you!
Capo 1
Chords: D,Am,Em+G 

     D                             Am                                      Em
e|---------2---------2------------------------0------------0-----------------------------0------------------|
B|-----3---------3----------3-------------1------------1-----------1----------------------------------------|
G|--2--------2----------2--------------------------------------------------------0--------------0-----------|
D|------------------------------------2-----------2----------2----------------------------------------------|
A|-----------------------------------------------------------------------------2---------------2------------|
E|----------------------------------------------------------------------------------------------------------|



         G                                                  (Extra part)listen to the song to hear it
e|-------------------------------------------------| |-------------------------------------------------------|
B|---------------0---------------0-----------------| |----------------0--------------------------------------|
G|-------------------------------------------------| |------------------0------------------------------------|
D|----------0---------------0--------------0-------| |--------------------0----------------------------------|
A|-------------------------------------------------| |-------------------------------------------------------|
E|------3--------------3--------------3------------| |-------------------------------------------------------|

^Goes back to the start



[Verse 1]
         
         D
From the way you smile
       Am
To the way you look
    Em
You capture me
   G
Unlike no other
         D
From the first hello
             C
Yeah, that's all it took
       Em
And certainly
  G
We had each other

[Prechorus]
    D       Am
And I won't leave you
Em        G
Always be true
 D          Am         G   G
One plus one, two for life
                  D
Over and over again

[Chorus]
                       Bm
So, don't ever think I need more
                    Em
I've got the one to live for

No one else will do, and
    A/D
I'm telling you
                          D
Just put your heart in my hands
                     Bm
Promise it won't get broken
                        Em
We'll never forget this moment

It will stay brand new
       A/D
'Cause I'll love you

Over and over again

D Am Em G

Over and over again


[Verse 2]
         D
From the heat of night
       Am
To the break of day
     Em
I'll keep you safe
    G
And hold you forever.
       D 
And the sparks will fly
            Am
They will never fade
       Em             G
'Cause every day gets better and better

[Prechorus]
    D       Am
And I won't leave you
Em        G
Always be true
 D          Am         G   G
One plus one, two for life
                  D
Over and over again

[Chorus]
                       Bm
So, don't ever think I need more
                    Em
I've got the one to live for

No one else will do, and
    A/D
I'm telling you
                          D
Just put your heart in my hands
                     Bm
Promise it won't get broken
                        Em
We'll never forget this moment

It will stay brand new
       A/D
'Cause I'll love you

Over and over again

D Am Em G

Over and over again

D Am Em G

[Bridge]
D
Girl when I'm with you
  Am
I lose track of time
Em
When I'm without you
       G
You're stuck on my mind
     D
I'll be all you need
          Am
Until the day that I die
     Em
I'll love you
G                 D
Over and over again

[Chorus]
                       Bm
So, don't ever think I need more
                    Em
I've got the one 
(Visited 1 times, 1 visits today)

Comments are closed.