Category: Chords


Losing Fight chords – Movements

 SONG:   LOSING FIGHT
ARTIST: MOVEMENTS
TAB BY: DON CZARSKI
EMAIL:  GUITARZAN7@HOTMAIL.COM
                  LOSING FIGHT
                   MOVEMENTS
INTRO:
GUITAR 1:
 Bm D G Bm D G
 GUITAR 2 - IMITATING PIANO
  PLAY OVER AND OVER
E ------------------
B ------------------
G ----2-------2-----
D --0---0---0---0---
A ------------------
E ------------------
VERSE:
  Bm D G
Split my brain in two
 Bm D G
Operating room
 Bm D G
Open up, cut through
     Bm D G
And erase these things I do
  A D G
Why am I so blue?
 A D G
Oh oh oh oh oh
GUITAR 1:
     Bm D G Bm D G
GUITAR 2:    FILL
E --------------------------
B --3--10--14----3--10--7---
G --------------------------
D --------------------------
A --------------------------
E --------------------------
VERSE:
 Bm D G
Analyze, assess
        Bm D G
And interpret emptiness
 Bm D G
Isolate my flaws
            Bm D G
Attempt to relieve restlessness
 A D G
Endless resonance
  A D G
Mmm mm mm mm mm
INSTRUMENTAL:
 Bm D G Bm D G
VERSE:
 Bm D G
Determine I’m depressed
      Bm D G
Prescribe and wish me best
    Bm D G
As if I didn’t know
 Bm D G G
I’m a fucking mess
INSTRUMENTAL:
 Bm F#m G Bm F#m G
VERSE:
           Bm F#m G
All of my demons have come to life
             Bm F#m G
And they’re eating me from the inside
            Bm F#m G
I’ve given up on trying to hide
                    Bm F#m G
'Cause they’re the only things left by my side
    Bm G
My si-ide
INSTRUMENTAL:
 Bm F#m G Bm F#m G
OUTRO:
    Bm F#m G
I still lie awake at night
        Bm F#m G
And I still feel the weight – black and white
       Bm F#m G
I am stuck in a losing fight
 Bm F#m G
I am not alright

How Far Can Too Far Go chords – The Cramps

 [Intro]
 C
[Verse 1]
 C
Stick em up baby reach for the sky
 C
Here's somethin' you might like to try
 C
I know a place that's far from here
 C
Where the squares they won't come near
[Chorus]
     F
How far?
          C
Hey, how far?
          G
Ooh, how far baby?
 F C
How far can too far go?
 C
Ah-ha
[Verse 2]
 C
You'll be the queen of the tractor pull
 C
In your training gear we'll break all the rules
 C
I like it tough and I don't talk my kicks
 C
If I had a hammer I'd show you some tricks
[Chorus]
         F
Oh, how far?
           C
Yeah, how far?
         G
Oh, how far baby?
 F C
How far can too far go?
 C
Let's go now
[Solo]
 C F C G F C
[Bridge]
 C
Giddyup baby, ooh la la
 C
Giddyup baby, sha la la la la la la la la
 C
[Verse 3]
 C
I know a place that's far from here
 C
Where the squares they won't come near
 C
A smell of honey and a swallow of brine
 C
Ooh swoop it up and have a real bad time
[Chorus]
         F
Oh, how far?
               C
Hey, hey, how far?
         G
Oh, how far baby?
 F C
How far can too far go?
[Outro]
         G
Oh, how far baby?
 F C
How far can too far go?
            G
I said how far oh-oh
 F C
How far can too far go?

What If We Swam Into Nothing Tabs – The Wonder Years

  and i tabbed it out by ear. Also i've only been playing guitar for less than three
months but this tab is almost perfect. If you have any questions/suggestions email me at
jpleve54@stu.jjc.edu
[Intro]
D#|--------------------------------------------------------------------------------------|
A#|--------------------------------------------------------------------------------------| Play twice
F#|--------------------------------------------------------------------------------------|
C#|-5----------------7-7-5----------------2-4/5----------------7-7--2-4-5----7-----------|
G#|-5--0-0-0--0-0-0--7-7-5--0-0-0--0-0-0--2-4/5--0-0-0--0-0-0--7-7--2-4-5----7-----------|
C#|-5--0-0-0--0-0-0--7-7-5--0-0-0--0-0-0--2-4/5--0-0-0--0-0-0--7-7--2-4-5b---7-----------|
       * * *  * * *         * * *  * * *         * * *  * * *
[Verse]
We fell asleep..
D#|--------------------------------------------------------------------------------------|
A#|--------------------------------------------------------------------------------------| Play twice
F#|--------------------------------------------------------------------------------------|
C#|-\2-------7-7-5-------7-7--9-12-7--7-7--4-4-5--7-5------------------------------------|
G#|-\2--0-0--7-7-5--0-0--7-7--9-12-7--7-7--4-4-5--7-5------------------------------------|
C#|-\2--0-0--7-7-5--0-0--7-7--9-12-7--7-7--4-4-5--7-5------------------------------------|
        * *         * *
[Bridge]
So if you miss me..
D#|--------------------------------------------------------------------------------------|
A#|--------------------------------------------------------------------------------------|
F#|--------------------------------------------------------------------------------------|
C#|-9-7-5--5-5-5--9-7-5--7-7-7--9-7-5--5-5-5--9-9-9-7------------------------------------|
G#|-9-7-5--5-5-5--9-7-5--7-7-7--9-7-5--5-5-5--9-9-9-7------------------------------------|
C#|-9-7-5--5-5-5--9-7-5--7-7-7--9-7-5--5-5-5--9-9-9-7------------------------------------|
[Chorus] So swim back to me..
D#|--------------------------------------------------------------------------------------|
A#|--------------------------------------------------------------------------------------|
F#|--------------------------------------------------------------------------------------|
C#|-9-9-9-9-7-7-7-7-5-5-5-5-2-2-4/5--7-7-7-7-5-5-5-5-2-4-5-------------------------------|
G#|-9-9-9-9-7-7-7-7-5-5-5-5-2-2-4/5--7-7-7-7-5-5-5-5-2-4-5-------------------------------|
C#|-9-9-9-9-7-7-7-7-5-5-5-5-2-2-4/5--7-7-7-7-5-5-5-5-2-4-5b------------------------------|
D#|--------------------------------------------------------------------------------------|
A#|--------------------------------------------------------------------------------------|
F#|--------------------------------------------------------------------------------------|
C#|-7-5-------7-7-5---------2-4/5-------7-7--2-4-5---------------------------------------|
G#|-7-5--0-0--7-7-5--0-0-0--2-4/5--0-0--7-7--2-4-5---------------------------------------|
C#|-7-5--0-0--7-7-5--0-0-0--2-4/5--0-0--7-7--2-4-5b--------------------------------------|
         * *         * * *         * *
[Then]
D#|--------------------------------------------------------------------------------------|
A#|--------------------------------------------------------------------------------------|
F#|--------------------------------------------------------------------------------------|
C#|-7-5-4-2/-----------------------------------------------------------------------------|
G#|-7-5-4-2/-----------------------------------------------------------------------------|
C#|-7-5-4-2/-----------------------------------------------------------------------------|
[Verse] It's you with those sleepy eyes..
D#|--------------------------------------------------------------------------------------|
A#|--------------------------------------------------------------------------------------| 

Arigato chords – julie bergan

 [Verse 1]
       Bm
I'm a big girl, baby
 A D G
Now, why you acting so shady lately?
                   Bm A
You don't need to babysit me,
                      D G
Arigato, later dude, gotta find another you, yeah someone new
 Bm A D
I'm about to steal a car, on my way to a random bar
                G Bm
I'm a colombus 'cause he went too far
       A D
I'm a big girl, baby
Don't protect me from the big world, baby
[chorus]
 G A
Oh, watchu' trying to protect me from?
                           Bm
I'm just tryina have some fun
             A D
But when we wake in the morning, stuck in a corner
 G A
Oh, just tell me what I have to say
                                Bm
I don't really like to play it safe
Arigato motherf-cker
 Bm A D G  x2
(Arigato, later)
[Verse 2]
       Bm A
I'm a big shot, baby
                D G
You can end my outburst, you see
                 Bm A
Gotta let me go crazy, baby
                         D
Arigato, what's the use?
                            G
Everything you got to lose
                 Bm
It's me and you
                       A D
All I wanna do is run, wanna see who I've become
                     G Bm
I'm not a housewife, never will be one
       A D
I'm a big shot, baby
I'm the one who makes the big bucks baby
[chorus]
 G A
Oh, watchu' trying to protect me from?
                           Bm
I'm just tryina have some fun
             A D
But when we wake in the morning, stuck in a corner
 G A
Oh, just tell me what I have to say
                                Bm
I don't really like to play it safe
Arigato motherf-cker
 Bm A D G  x2
[chorus]
 G A
Oh, watchu' trying to protect me from?
                           Bm
I'm just tryina have some fun
             A D
But when we wake in the morning, stuck in a corner
 Bm A D G  x2
(Arigato, later)

Under Your Spell acoustic chords – Desire Vsion 1

 Standard Tuning EADGBe
****NO CAPO****
Yep, the whole song is basically 2 lines repeated twice each.
The Bb after the Cm in the verse is a grace chord and is thus optional)
Generally the song has a very loose, airy quality about it so don't play it too fast.
Intro:  G# Eb Bb Bb
Verse 1:
 G# Eb Bb Cm Bb
I don't eat,  I dont' sleep, I do nothing but think of you
 G# Eb Bb Cm Bb
I don't eat,  I dont' sleep, I do nothing but think of you
Chorus 1:
 G# Eb A# G#
You keep me under your spell, you keep me under your spell, you keep me under your spell....
 G# Eb A# G#
You keep me under your spell, you keep me under your spell, you keep me under your spell....
(end)
(repeat each part 3 times/second with spoken word)

Amanda acoustic chords – Boston Vsion 1

 [INTRO]
 G C G C
[VERSE 1]
 G C G
Babe, tomorrow's so far away.
         Em Bm
There's somethin' I just have to say.
         C
I don't think I could hide
          G Am G
what I'm feelin' inside, another day
            D
knowin' I love you.
[VERSE 2]
     G C G
And I, I'm gettin' too close again.
 Em Bm
I don't wanna see it end.
            C
If I could tell you tonight,
          G Am G
will you turn out the light, and walk away
            D C G D
knowin' I love you?
[CHORUS]
           Em
I'm gonna take you by surprise
     Am7 D
and make you realize, Amanda.
           Em
I'm gonna tell you right away;
         Am7 D
I can't wait another day, Amanda.
           Em
I'm gonna say it like a man
     Am7 D
and make you understand, Amanda.
   C
I love you.
[VERSE 3]
 G C G
And, I feel like today's the day
     Em Bm
I'm lookin' for the words to say.
        C
Do you wanna be free?
         G Am G
Are you ready for me, to feel this way?
                D
I don't wanna lose ya.
[VERSE 4]
 G C G
So, it may be too soon, I know.
     Em Bm
The feelin' takes so long to grow.
    C
If I tell you today
          G Am G
will you turn me away, and let me go?
                D
I don't wanna lose you.
[CHORUS]
           Em
I'm gonna take you by surprise
     Am7 D
and make you realize, Amanda.
           Em
I'm gonna tell you right away;
         Am7 D
I can't wait another day, Amanda.
           Em
I'm gonna say it like a man
     Am7 D
and make you understand, Amanda.
   C
I love you.

Up There chords – Trey Parker Vsion 3

 [Verse 1]
 F Gm7
Sometimes I think
 Bb F
When I look up real high
 Dm7 F/C
That there's such a big world up there
 Bb C
I'd like to give it a try
 F Gm7
But then I sink
 Bb F
Cause it's here I'm supposed to stay
 Dm7 F/C
But i get so lonely down here
 Bb Eb
Tell me why's it have to be that way
[Chorus]
 Bb F
Up there, there is so much room
 Bb F
Where babies burp and flowers bloom
 Ab Eb
Everyone dreams, I can dream too
 C/E
Up
 F
There
 D/F#
Up
 Gm Bb/F
Where the skies are ocean blue
 Edim
I can be safe and
 Eb F
Live without a care
 Bb
Up there
[Verse 2]
 F Gm7
They say I don't belong
 Bb F
I must stay below alone
 Dm7 F/C
Because of my beliefs I'm supposed to
 Bb C
Stay where evil is sown
 F Gm7
But what is evil anyway
 Bb F
Is there reason to the rhyme
 Dm7 F/C
Without evil there could be no good so it must be
 Bb Eb
Good to be evil sometimes
[Chorus]
 Bb F
Up there, there is so much room
 Bb F
Where babies burp and flowers bloom
 Ab Eb
Everyone dreams, I can dream too
 C/E
Up
 F
There
 D/F#
Up
 Gm Bb/F
Where the skies are ocean blue
 Edim
I can be safe and
 Eb Cm7
Live without a care
      Cm7/F
Live without a care
 D7
If only I could live up...
 G
There!
 C/G
I wanna live
 D/G
I wanna live up
 G
There eeee uuuooooo wwwoooo
 C G/B Am7 D E
I want to live up there....

Il Cielo Immenso album chords – Jovanotti Vsion 1

 NO CAPO
 D A G D  (x2)
     D
Una mela nella borsa come pranzo
 A
i tuoi occhi fanno a gara con il sole
     Bm
un dolore che nascondi molto bene
 A
ma rimane come sfondo alle parole
     D
Cosa è rimasto della frenesia sfacciata
   A
Del piacere di non sapere che ore sono
 Bm
di un paese che ti stava su misura
    A
Le sue curve l'allegria la sua natura
  G A
È tutto qui coperto dal passaggio
 F#m A
di stelle finte e raffiche di no
 G A
Ma se guardi un po' sotto e soffi forte
 Em A
ritorna tutto a splendere lo so
   D A
La vita non aspetta che sia giusto
  Bm A
e il tuono non aspetterà il silenzio
  D A Bm A
L'amore dato non ritorna a posto ma resta in giiiiiiro
                   G A G A
e rende il cielo immenso uhoo hoo il cielo immenso ahh ahh
      D D A G D
il cielo immenso
     D
Un filo di rossetto al panorama
 A
un po' di ammorbidente all'orizzonte
    Bm
Guardi negli occhi l'uomo senza sguardo
   A
Come se avesse fine scritto in fronte
   D
sei sempre tu la boyscout con la pistola
 A
la calciatrice con le ballerine
   Bm
Quello che resta è un po' di una ragazza
   A
Sdraiata come un fiume sul confine
 G A
Ma se guardi un po' sotto e soffi forte
 Em A
ritorna tutto a splendere lo so
   D A
La vita non aspetta che sia giusto
   Bm A
e il tuono non aspetterà il silenzio
 D A Bm A
L'amore dato non ritorna a posto ma resta in giiiiiiro
                   G A G A
e rende il cielo immenso uhoo hoo il cielo immenso ahh ahh
  Bm
e in fondo alle inquietudini ci troveremo
   F#m
a ridere di questo nostro mondo scemo
 A
io non ti lascerò dormire
   Em
senza quel sogno seminato insieme
  Bm
e in faccia ai nostri incubi lo grideremo
  F#m
in nome di una storia che parla di noi
 G
che non ci siamo arresi
   A# C
e non ci arrenderemo mai
     F C
la vita non aspetta che sia giusto
    Dm C
e il tuono non aspetterà il silenzio
   F C Dm C
L'amore dato non ritorna a posto ma resta in giiiiiiro
                   A# C A# C
e rende il cielo immenso uhoo hoo il cielo immenso ahh ahh
            F C A# C F
il cielo immenso

Fully Completely chords – The Tragically Hip

 FULLY COMPLETELY
capo 2
[intro]
   D C G D C G
[verse]
 D C G
Bring me back in shackles
 D C G
Hang me long out in the sun
 D
Exonerate me
  C G D C G
Forget about me
[verse]
 D C G
I recommend measures for ending it
 D C G
Lover, she simply slammed the door
 D
She said, “You're going to miss me
 C G
Wait and you’ll see"
 D C G D C G D C G
Fully and completely
[verse]
 D C G
I ponder the endlessness of the stars
 D C G
Ignoring said same of my father
 D
Either it’ll move me
          C G
Or it’ll move right through me
 D C G
Fully and completely
{rhythm for solo]
   D C G D C G D C G D C G D C G D C G
[outro]
 D
Bring me back in shackles
     C G
And hang me long out in the sun
 D
Exonerate me
      C G
Then forget about me
 D
Wait and you’ll see
      C G
Just wait and you’ll see
 D C G
Fully and completely
 D C G
Fully and completely
 D C G
Fully and completely
 D C G D C G D C G
(slower)
 D C G D C G D C G

Sayo Hesus chords – Faith Music Manila

 FAITH MUSIC MANILA
9th Album - BIYAYANG GANAP
Title - SA'YO HESUS
Songwriter - MA. ELLEN LICUP-MEDINA
Singer - EUNICE L. RODILLO
Website - http://faithmusicmanila.com/
Facebook - https://www.facebook.com/FaithMusic-Manila-55627114362/
Telephone - +632 872-4618
Telefax - +632 872-4857
Email - faithmusicmanila
[Intro 1]
 A C#m Bm7 E  (2x)
[Verse 1]
  A
IKAW HESUS
     C#m7 Bm7 E
ANG NAGBIGAY NG AKING BUHAY
   A C#m7 Bm7 E
KAYA'T IKAW ANG PAG-ASANG HAHAWAKAN KO
[Pre-Chorus 1]
   D E
SIGAW NG PUSO KO ANG PANGALAN MO
  D E
IKAW ANG KASAGUTAN NARANASAN KO
[Chorus]
  A E E D
IKAW ANG KALIGTASAN KO
  A E E D
INIBIG MO ANG TULAD KO
  Bm7 E
IKAW LAMANG HESUS, IKAW
   A E E D
BINAGO MO ANG BUHAY KO
  A E E D
AKO NGAYON AY TULAD MO
 Bm7 F#m7
PINATAWAD AT PINALAYA MO
   E2
PANGINOON
[Intro 2]
 A C#m7 Bm7 E
[Verse 2]
    A C#m7 Bm7 E
SA'YO HESUS NARANASAN ANG BAGONG BUHAY
   A C#m7 Bm7 E
TANGING IKAW ANG LIGAYA AT KALAKASAN KO
[Pre-Chorus 2]
   D E
BUHAY AY IBINIGAY SA KRUS MO INALAY
  D E
UPANG KAPAHINGAHA'Y MARANASAN KO
[Chorus]
  A E E D
IKAW ANG KALIGTASAN KO
  A E E D
INIBIG MO ANG TULAD KO
  Bm7 E
IKAW LAMANG HESUS, IKAW
   A E E D
BINAGO MO ANG BUHAY KO
  A E E D
AKO NGAYON AY TULAD MO
 Bm7 F#m7
PINATAWAD AT PINALAYA MO
   E2
PANGINOON
[Adlib]
 A C#m Bm7 E
[Pre-Chorus 2]
   D E
BUHAY AY IBINIGAY SA KRUS MO INALAY
  D E
UPANG KAPAHINGAHA'Y MARANASAN KO
[Chorus]
  A E E D
IKAW ANG KALIGTASAN KO
  A E E D
INIBIG MO ANG TULAD KO
  Bm7 E
IKAW LAMANG HESUS, IKAW
   A E E D
BINAGO MO ANG BUHAY KO
  A E E D
AKO NGAYON AY TULAD MO
 Bm7 F#m7
PINATAWAD AT PINALAYA MO
   E2
PANGINOON
[Outro]
 A C#m7 Bm7 E A C#m7 Bm7 E A
Page 10 of 19,640« First...89101112...203040...Last »