Category: Chords


1901 Acoustic Tab by Phoenix

main riff
e----------------4---4-4-4-----------------------------|
a--7---7-7-7-----x---x-x-x-----2---2-2-2-----2---2-2-2-|
d--9---9-9-9-----4---4-4-4-----4---4-4-4-----4---4-4-4-|
g--x---x-x-x-----4---4-4-4-----x---x-x-x-----x---x-x-x-|
b--9---9-9-9-----4---4-4-4-----2---2-2-2-----2---2-2-2-|
e----------------4---4-4-4-----------------------------|
e----------------4---4-4-4-----------------------4-4-4-|
a--7---7-7-7-----x---x-x-x-----2---2-2-2-----2---------|
d--9---9-9-9-----4---4-4-4-----4---4-4-4-----4---4-4-4-|
g--x---x-x-x-----4---4-4-4-----x---x-x-x-----x---x-x-x-|
b--9---9-9-9-----4---4-4-4-----2---2-2-2-----2---2-2-2-|
e----------------4---4-4-4-----------------------------|
this is 100% correct... sorry i dont have the bridge or the rythym any ideas email it to me

Fuhre Mich Tab by Rammstein

Song: Führe Mich
Artist: Rammstein
Album: Liebe Ist Für Alle Da
Tuning: Drop D (DADGBE)
INTRO
2x
|---------------------------------------------------------------|
|---------------------------------------------------------------|
|---------------------------------------------------------------|
|---------------------------------------------------------------|
|---------------------------------------------------------------|
|-0-0-0-0-0-0-6---0-0-0---0-0-0---0-0-0-0-0-0-6---0-0-0---0-0-0-|
KICK
2x
|---------------------------------------------------------------|
|---------------------------------------------------------------|
|---------------------------------------------------------------|
|-------------6-------------------------------6-----------------|
|-0-0-0-0-0-0-6---0-0-0---0-0-0---0-0-0-0-0-0-6---0-0-0---0-0-0-|
|-0-0-0-0-0-0-6---0-0-0---0-0-0---0-0-0-0-0-0-6---0-0-0---0-0-0-|
|---------------------------------------------------------------|
|---------------------------------------------------------------|
|---------------------------------------------------------------|
|-------------6-------------------------------6---3~------2~----|
|-0-0-0-0-0-0-6---0-0-0---0-0-0---0-0-0-0-0-0-6---3~------3~----|
|-0-0-0-0-0-0-6---0-0-0---0-0-0---0-0-0-0-0-0-6---3~------2~----|
VERSE
Just Bass
PRE-CHORUS
Horns
|---------------------------------------------------------------|
|---------------------------------------------------------------|
|---------------------------------2~----------------------------|
|-0~------------------------------x-----------------------------|
|-x-------------------------------0~----------------------------|
|-0~------------------------------------------------------------|
|---------------------------------------------------------------|
|---------------------------------------------------------------|
|-3~------------------------------------------------------------|
|-x---------------0~--------------5~----------------------------|
|-1~--------------x---------------x-----------------------------|
|-----------------0~--------------5~----------------------------|
CHORUS I
|---------------------------------------------------------------|
|---------------------------------------------------------------|
|---------------------------------------------------------------|
|-------------6-------------------------------6-----------------|
|-0-0-0-0-0-0-6---0-0-0---0-0-0---0-0-0-0-0-0-6---0-0-0---0-0-0-|
|-0-0-0-0-0-0-6---0-0-0---0-0-0---0-0-0-0-0-0-6---0-0-0---0-0-0-|
|---------------------------------------------------------------|
|---------------------------------------------------------------|
|---------------------------------------------------------------|
|-------------6-------------------------------6---3~------2~----|
|-0-0-0-0-0-0-6---0-0-0---0-0-0---0-0-0-0-0-0-6---3~------2~----|
|-0-0-0-0-0-0-6---0-0-0---0-0-0---0-0-0-0-0-0-6---3~------2~----|
|---------------------------------------------------------------|
|---------------------------------------------------------------|
|---------------------------------------------------------------|
|-------------6-------------------------------6-----------------|
|-0-0-0-0-0-0-6---0-0-0---0-0-0---0-0-0-0-0-0-6---0-0-0---0-0-0-|
|-0-0-0-0-0-0-6---0-0-0---0-0-0---0-0-0-0-0-0-6---0-0-0---0-0-0-|
|---------------------------------------------------------------|
|---------------------------------------------------------------|
|---------------------------------------------------------------|
|-------------6-------------------6-6-6-6-6-6-6-6-3~------1~----|
|-0-0-0-0-0-0-6---0-0-0---0-0-0---6-6-6-6-6-6-6-6-3~------1~----|
|-0-0-0-0-0-0-6---0-0-0---0-0-0---6-6-6-6-6-6-6-6-3~------1~----|
Horns
|---------------------------------------------------------------|
|---------------------------------------------------------------|
|---------------------------------2~----------------------------|
|-7~------------------------------x-----------------------------|
|-5~------------------------------0~----------------------------|
|---------------------------------------------------------------|
|---------------------------------------------------------------|
|---------------------------------------------------------------|
|-3~------------------------------------------------------------|
|-x---------------0~--------------5~----------------------------|
|-1~--------------x---------------x-----------------------------|
|-----------------0~--------------5~----------------------------|
VERSE 2
Here’s a weird riff here at 1:48
|(10)-x--x--x--x--x--x--x--x--x--x--x--x--x--x--x---------------|
|-x---x--x--x--x--x--x--x--x--x--x--x--x--x--x--x---------------|
|(7)--x--x--x--x--x--x--x--x--x--x--x--x--x--x--x---------------|
|---------------------------------------------------------------|
|---------------------------------------------------------------|
|---------------------------------------------------------------|
It’s something like that, just keep finger lightly touching the 7 and 10 like playing a
harmonic.
PRE-CHORUS II
Guitar II/Keys
2x
|---------------------------------------------------------------|
|-----10--11--10~-----------------------------------------------|
|-7-----------------------------------7---9---7~----------------|
|---------------------------------------------------------------|
|---------------------------------5-----------------------------|
|---------------------------------------------------------------|
Horns Stay the Same
Chorus Again
Solo
2x
|-13~--------12--10-----------10--13~------------15---13p12p10~-|
|-x----------x---x---13~------x---x--------------x----x---------|
|-10~--------9---7---x--------7---10~------------12---10p9-p7~--|
|--------------------10~----------------------------------------|
|---------------------------------------------------------------|
|---------------------------------------------------------------|
|-13~--------12--10-----------10--12~-------------17~-----18~---|
|-x----------x---x---13---13--x---x---------------x-------x-----|
|-10~--------9---7---x----x---7---9-~-------------14~-----15~---|
|--------------------10---10------------------------------------|
|---------------------------------------------------------------|
|---------------------------------------------------------------|
INTERLUDE:
Guitars
|---------------------------------------------------------------|
|---------------------------------------------------------------|
|---------------------------------------------------------------|
|---------------------------------------------------------------|
|-0-0-0-0-0-0-----0-0-0---0-0-0---0-0-0-0-0-0-----0-0-0---0-0-0-|
|-0-0-0-0-0-0-----0-0-0---0-0-0---0-0-0-0-0-0-----0-0-0---0-0-0-|
CHORUS II
Guitars
|---------------------------------------------------------------|
|---------------------------------------------------------------|
|---------------------------------------------------------------|
|-\0~-----------------------------0~----------------------------|
|-\0~-----------------------------0~----------------------------|
|-\0~-----------------------------0~----------------------------|
|---------------------------------------------------------------|
|---------------------------------------------------------------|
|-3~------------------------------------------------------------|
|-3~------------------------------5~----------------------------|
|-1~------------------------------5~----------------------------|
|---------------------------------5~----------------------------|
|---------------------------------------------------------------|
|---------------------------------------------------------------|
|---------------------------------------------------------------|
|-0~------------------------------0~----------------------------|
|-0~------------------------------0~----------------------------|
|-0~------------------------------0~----------------------------|
|---------------------------------------------------------------|
|---------------------------------------------------------------|
|-3~------------------------------------------------------------|
|-3~------------------------------5~--------------3~------1~----|
|-1~------------------------------5~--------------3~------1~----|
|---------------------------------5~--------------3~------1~----|
Keys
2x
|---------------------------------------------------------------|
|---------------------------------10~---------------------------|
|-----------------~10-------------X-----------------------------|
|------------------X--------------7-~---------------------------|
|-----------------~8--------------------------------------------|
|---------------------------------------------------------------|
|---------------------------------------------------------------|
|-11~--------------6~-------------8~----------------------------|
|-X----------------X--------------X-----------------------------|
|-8-~--------------3~-------------5~----------------------------|
|---------------------------------------------------------------|
|---------------------------------------------------------------|
Chorus I again
	With Horns and Solo
And yer done.
Go Rammstein.

Savannah Tab by Relient K

yeah it goes a little like this
C#|-0-7-0-7-0-7------------|
A |----6---8---6-----------|
D |------------------------|
G |------------------------|
B |------------------------|
E |------------------------|x2
C#|-0--0--0----------------|
A |--1--1--1---------------|
D |------4-----------------|
G |---1-----1--------------|
B |------------------------|
E |------------------------| x2
C#|-0--0--0----0--0--0--0---|
A |--0--0-------0--0--0--0--|
D |---4--4------------------|
G |---------6-8--6--6--6--6-|
B |-------------------------|
E |-------------------------|
C#|-0-7-0-7-0-7-0----------|
A |----8---8---8-----------|
D |------------------------|
G |------------------------|
B |------------------------|
E |------------------------|

Buster Voodoo Tab by Rodrigo Y Gabriela

This is by far the most daunting task I've ever put upon myself. I've been working on
song for hours and I'm only at about 1 minute. I'll keep on adding to this as I get it. I
you enjoy it, its a fun song!
Intro: Gabriela
E|---------------------------------------------|---------------------------------------------|
B|---------------------------------------------|---------------------------------------------|
G|---------------------------------------------|-----------------------------77----77----9-9-|
D|-----9--xx--------------------9----xx--------|-----9--xx----------------xx-77-xx-77-xx-9-9-|
A|-----0--xx------7h8p7---------0----xx--------|-----0--xx------7h8p7-----xx-00-xx-00-xx-0-0-|
E|-7-7----xx-7-10-0*----10--7-7---55-xx--5-5h7-|-7-7----xx-7-10-0*----10--xx----xx----xx-----|
Every other time, Gabriela plays her crazy, fast, muted thing as a substitute for the very
end part
Intro: Rodrigo
E|------------------------------------------------------------------------------|
B|-------------5-6-5------------------------------------------------------------|
G|-----/7-6--7-------7----------------------------------------------------------|
D|---4----------------7/9--------7-------7-9----7-9-----------------------------|
A|-2-------------------------7h9-----7h9------9-----9~-5-7-9--------------------|
E|-------------------------7-------7-------------------------7~-5-5-5-5-5-5-6-7-|
0:32 Riff 2: Rodrigo
E|----------------------|---1st Ending-----------|---2nd Ending---|
B|----------------------|------------------------|----------------|
G|----------------------|------------------------|----------------|
D|----------------------|------------------------|-4444-4444-44-0-|
A|-------5-------5------|-------5---8-7h8p7------|-4444-4444-44-0-|
E|-7-5h7---0-3/5---7--5-|-7-5h7---0*--------10-5-|-2222-2222-22-0-|
After that entire part is played once, another lead guitar comes in and plays the same
an octave higher, and
at the 2nd ending the chords are played straight, without rhythmic breaks.
That's all I've got for now. Please feel free to send any comments or corrections
to hildesaw88

Monologue Song Chords – Taylor Swift

This is the monologue song (la la la) from when Taylor hosted Saturday Night Live
on 11/7/09. This may not be completely correct, sort of learned this by ear, sort
of by the performance... first tab. let me know of any corrections if ya find anything wrong :)
CAPO 2
C
C        G          Am        Em
I like glitter and sparkly dresses.
F
But I'm not gonna talk about that
G
in my monologue.
C       G           Am                     Em
I like baking and things that smell like winter.
F
But I'm not gonna talk about that
G
in my monologue.
C
La la la. La la la.
C                     G             Am                         Em
I like writing songs about douchebags who cheat on me.
F
But I'm not gonna say that
G
in my monologue.
              C                                   G                            Am             Em
I like writing their names into songs so they're ashamed to go in public.
F
But I'm not gonna say that
G
in my monologue.
C
C   G  Am   G     F                       G
La la. La la la la la. This is my musical monologue.
C                  G                             Am                           Em
You might think I'd bring up Joe, that guy who broke up with me on the phone.
F
But I'm not gonna mention him,
G
in my monologue.
C
Hey Joe, I'm doing real well!
G                    Am        Em
Tonight I'm hosting 'SNL.'
F
But I'm gonna brag about that
G
in my monologue.
C
La la la. Ha ha ha.
Ha ha ha. Ha ha ha. La la la.
C                                              G                                   Am          Em
And if you're wondering if I might be dating the werewolf from 'Twilight.'
[ "Hi Taylor," wink & blows kiss.]
F
I'm not gonna comment on that
G
in my monologue.
C   G  Am   G     F                       G
La la. La la la la la. This is my musical monologue.
Am
Am                                                          Em
You might be expecting me to say something bad about Kanye
        F
and how he ran up on the stage and ruined my VMA monologue.
C                  G                            Am         G                 F
But there's nothing more to say cuz everything's OK.
                                         F
I've got security lining the stage.
It's my 'SNL' monologue.
C   G  Am   G    F                       G
La la. La la la la la. This is my 'SNL' monologue.
C   G  Am   G     F                       G
La la. La la la la la. That was my 'SNL' monologue.

With Roots Above And Branches Below Tab by The Devil Wears Prada

Song: Sassafras
Band: The Devil Wears Prada
Tuning: Drop D (D A D G B E)
Tabbed by: BILLYutm
-----------------------
PM or - = palm mute
T = tremolo pick
~ = hold note
* = harmonic
B = bend
x = silent/muted
-----------------------
NOTE: Guitar III is sort of overlayed behind both guitars, playing through both
speakers. It's sorta difficult to hear sometimes.
Intro (0:04 - 0:13) play twice
Guitar I
|----------------------------------|
|----------------------------------|
|----------------------------------|
|----------------------------------|
|-1-----1---------------------5----|
|---0-0---x-0-x-1-0-1h4-x-0-0---x--|
PM  - -   -   -   -     -   -   -
|---------------------------|
|---------------------------|
|---------------------------|
|---------------------------|
|-1-----1---------------1~--|
|---0-0---x-7-0-4-0-3-x-1~--|
PM  - -   -   -   -   -
Guitar II
|-----------------------------|
|-----------------------------|
|-----------------------------|
|-0~--------------------------|
|-0~--------------------------|
|-0~--------------------------|
(0:14 - 0:32) play twice
Guitars I, II
|---------------------------------|x3
|---------------------------------|
|---------------------------------|
|---------------------------------|
|-0-0-0-0--0-0-0-0-0-0--0-0-0-0---|
|-1-1-1-1--1-1-1-1-1-1--1-1-1-1---|
PM- - - -  - - - - - -  - - - -
then
|----------------------------|
|----------------------------|
|----------------------------|
|----------------------------|
|-0-0-0-0--0-0--0000--0000---|
|-1-1-1-1--1-1--1111--1111---|
PM- - - -  - -  ----  ----
(0:33 - 0:37)
Guitar I
|----------------------------------|
|----------------------------------|
|----------------------------------|
|----------------------------------|
|-1-----1---------------------5----|
|---0-0---x-0-x-1-0-1h4-x-0-0---x--|
PM  - -   -   -   -     - -     -
|---------------------------|
|---------------------------|
|---------------------------|
|---------------------------|
|-1-----1---------------1~--|
|---0-0---x-7-0-4-0-3-x-1~--|
PM  - -   -   -   -   -
Guitar II
|-----------------------------|
|-----------------------------|
|-----------------------------|
|-0~--------------------------|
|-0~--------------------------|
|-0~--------------------------|
Verse (0:38 - 0:46)
Guitars I, II
|----------------------------------|
|----------------------------------|
|----------------------------------|
|----------------------------------|
|-1-----1---------------------5----|
|---0-0---x-0-x-1-0-1h4-x-0-0---x--|
PM  - -   -   -   -     - -     -
|---------------------------|
|---------------------------|
|---------------------------|
|---------------------------|
|-1-----1---------------1~--|
|---0-0---x-7-0-4-0-3-x-1~--|
PM  - -   -   -   -   -
(0:47 - 0:56) play twice
Guitars I, II
|--------------------------------------|
|--------------------------------------|
|--------------------------------------|
|--------------------------------------|
|-000--000-000--000--000-000-000--000--|
|-000--000-000--000--000-000-000--000--|
PM---  --- ---  ---  --- --- --- ---
Guitar III (tremolo picked, kinda quiet)
|-----------------------------|
|-----------------------------|
|-----------------------------|
|-----------------------------|
|-5---------------------------|
|----8-7-8-7-5-8-5-3-5-3--1---|
Interlude (0:58 - 1:05)
Guitar I
|-----------------------------------------|
|-----------------------------------------|
|-----------------------------------------|
|-----------------------------------------|
|--------------------0~-------------------|
|-000--000-000--000--0~--4-3-1-0-4-3-1-0--|
PM---  --- ---  ---      - - - - - - - -
Guitar II
|-----------------------------------------|
|-----------------------------------------|
|-----------------------------------------|
|-----------------------------------------|
|--------------------0~-------------------|
|--------------------0~--4-3-1-0-4-3-1-0--|
                         - - - - - - - -
Guitar III (has some sort of delay effect)
|------------------------------|
|------------------------------|
|-10(x8)--9(x8)--7(x8)---------|
|-----------------------7(x8)--|
|------------------------------|
|------------------------------|
(contd.)
Guitar I
|-------------------------------------|
|-------------------------------------|
|-------------------------------------|
|-------------------------------------|
|-0----------1--0---------------------|
|-0----------1--0--0-0-4-3-1-0--3b*---|
PM                 - - - - - -
Guitar II
|-------------------------------------|
|-------------------------------------|
|-------------------------------------|
|-------------------------------------|
|-0----------1--0---------------3b*---|
|-0-000-000--1--0--0-0-4-3-1-0--------|
PM  --- ---        - - - - - -
Guitar III (has some sort of delay effect)
|--------------------------|
|--------------------------|
|-10(x8)--9(x6)--12(x18)---|
|--------------------------|
|--------------------------|
|--------------------------|
(1:06 - 1:24) play twice
Guitars I, II
|-------------------------------------------|
|-------------------------------------------|
|-------------------------------------------|
|-------------------------------------------|
|-000--000-000--000--000-000-000-000--000---|
|-000--000-000--000--000-000-000-000--000---|
PM---  --- ---  ---  --- --- --- ---  ---
Guitar III
|------------------------------|
|------------------------------|
|-10(x8)--9(x8)--7(x8)---------|
|--x------x------x------7(x8)--|
|--8------7------5------x------|
|-----------------------7------|
(contd.)
Guitars I, II
|-------------------------------------------|
|-------------------------------------------|
|-------------------------------------------|
|-------------------------------------------|
|-000--000-000--000--000-000-000-000--000---|
|-000--000-000--000--000-000-000-000--000---|
PM---  --- ---  ---  --- --- --- ---  ---
|---------------------------------|
|---------------------------------|
|-10(x8)--9(x6)--17(x10)--12(x8)--|
|--x------x-------x--------x------|
|--8------7------15-------10------|
|---------------------------------|
(1:25 - 1:42) play twice
Guitar I
|----------------------------------|
|----------------------------------|
|----------------------------------|
|----------------------------------|
|-5-----5-----5---8-----8-----8----|
|---0-0---0-0---0---0-0---0-0---0--|
PM  - -   - -   -   - -   - -   -
Guitar II
|--------------|
|--------------|
|--------------|
|-0~-----------|
|-0~-----------|
|-0~-----------|
|----------------------------------------|
|----------------------------------------|
|----------------------------------------|
|----------------------------------------|
|-10-----10-----10---12-----12-----12----|
|----0-0----0-0----0----0-0----0-0----0--|
PM   - -    - -    -    - -    - -    -
Guitar II
|--------------|
|--------------|
|--------------|
|-0~-----------|
|-0~-----------|
|-0~-----------|
(contd.)
Guitar I
|----------------------------------|
|----------------------------------|
|----------------------------------|
|----------------------------------|
|-5-----5-----5---8-----8-----8----|
|---0-0---0-0---0---0-0---0-0---0--|
PM  - -   - -   -   - -   - -   -
Guitar II
|--------------|
|--------------|
|--------------|
|-8~-----------|
|-8~-----------|
|-8~-----------|
|----------------------------------------|
|----------------------------------------|
|----------------------------------------|
|----------------------------------------|
|-10-----10-----10---12-----12-----12----|
|----0-0----0-0----0----0-0----0-0----0--|
PM   - -    - -    -    - -    - -    -
Guitar II
|--------------|
|--------------|
|--------------|
|-8~-----------|
|-8~-----------|
|-8~-----------|
(1:42 - 1:44)
Guitar III
|---------------------|
|---------------------|
|---------------------|
|---------------------|
|---------------------|
|-0--0-0--0--0-0--0-0-|
PM   - -     - -
Breakdown (1:44 - 2:03) play twice
Guitars I, II
|---------------------------------|x3
|---------------------------------|
|---------------------------------|
|---------------------------------|
|-0-0-0-0--0-0-0-0-0-0--0-0-0-0---|
|-0-0-0-0--0-0-0-0-0-0--0-0-0-0---|
PM- - - -  - - - - - -  - - - -
then
|----------------------------|
|----------------------------|
|----------------------------|
|----------------------------|
|-0-0-0-0--0-0--0000--0000---|
|-0-0-0-0--0-0--0000--0000---|
PM- - - -  - -  ----  ----
PAUSE, FADE
Guitars I, II
|-------------|
|-------------|
|-------------|
|-0~~---------|
|-0~~---------|
|-0~~---------|
Chorus (2:05 - 2:43) play four times
Guitar I
|-------------------------------|
|-------------------------------|
|-7(x12)---14(x4)---12(x16)-----|
|-x---------x--------x----------|
|-5--------12-------10----------|
|-------------------------------|
Guitar II
|---------------------------------|
|---------------------------------|
|---------------------------------|
|---------------------------------|
|-8-8-8-8-8-8-8-8-5-5-5-5-5-5-5-5-|
|-8-8-8-8-8-8-8-8-5-5-5-5-5-5-5-5-|
(contd.)
Guitar I
|-------------------------------|
|-------------------------------|
|-7-(x16)---9-(x6)---17(x10)----|
|-x-----------------------------|
|-5-----------------------------|
|-------------------------------|
Guitar II
|---------------------------------|
|---------------------------------|
|---------------------------------|
|---------------------------------|
|-0-0-0-0-0-0-0-0-0-0-0-0-0-0-0-0-|
|-0-0-0-0-0-0-0-0-0-0-0-0-0-0-0-0-|
(2:44 - 2:48)
Guitar III
|------------------------|
|------------------------|
|--7-(x28)---------------|
|--x---------------------|
|--5---------------------|
|-----------TREMOLO BAR--|
(2:49 - 2:57) play twice
Guitars I, II
|-------------------------------|x4
|-------------------------------|
|-------------------------------|
|-0--12\------------------------|
|-0--12\---0-0-0x---0-0x-0x-0x---|
|-0--12\---0-0-0x---0-0x-0x-0x---|
Guitar III
|------------|
|-7-(x32)----|
|-x----------|
|-5----------|
|------------|
|------------|
(2:58 - 3:05)
Guitars I, II
|-------------------------------|x2
|-------------------------------|
|-------------------------------|
|-0--12\------------------------|
|-0--12\---0-0-0x---0-0x-0x-0x---|
|-0--12\---0-0-0x---0-0x-0x-0x---|
Guitar III (after second time)
|-------------------------------------------------|
|-------------------------------------------------|
|-10-10-10-10-10-10-10-10-12-12-12-12-12-12-12-12-|
|--x--x--x--x--x--x--x--x--x--x--x--x--x--x--x--x-|
|--8--8--8--8--8--8--8--8-10-10-10-10-10-10-10-10-|
|-------------------------------------------------|
Outro (3:06 - 3:12)
Guitar I
|-------------------------------------------------|
|-------------------------------------------------|
|-14-14-14-14-14-14-14-14-14-14-14-14-14-14-14-14-|
|--x--x--x--x--x--x--x--x--x--x--x--x--x--x--x--x-|
|-12-12-12-12-12-12-12-12-12-12-12-12-12-12-12-12-|
|-------------------------------------------------|
Guitar II
|-------------------------------------------------|
|-------------------------------------------------|
|-10-10-10-10-10-10-10-10-10-10-10-10-10-10-10-10-|
|--x--x--x--x--x--x--x--x--x--x--x--x--x--x--x--x-|
|--8--8--8--8--8--8--8--8--8--8--8--8--8--8--8--8-|
|-------------------------------------------------|
(contd.)
Guitar I
|-------------------------------------------------|
|-------------------------------------------------|
|-15-15-15-15-15-15-15-15-17-17-17-17-17-17-17-17-|
|--x--x--x--x--x--x--x--x--x--x--x--x--x--x--x--x-|
|-13-13-13-13-13-13-13-13-15-15-15-15-15-15-15-15-|
|-------------------------------------------------|
Guitar II
|-------------------------------------------------|
|-------------------------------------------------|
|-12-12-12-12-12-12-12-12-14-14-14-14-14-14-14-14-|
|--x--x--x--x--x--x--x--x--x--x--x--x--x--x--x--x-|
|-10-10-10-10-10-10-10-10-12-12-12-12-12-12-12-12-|
|-------------------------------------------------|
(3:13 - END)
Guitars I, II
|---------------------|
|---------------------|
|---------------------|
|-0--12\--------------|
|-0--12\---0x-0x-0x---|
|-0--12\---0x-0x-0x---|
===============================================================
Song: I Hate Buffering
Band: The Devil Wears prada
Tuning: Drop B
Tabbed by: BILLYutm
|--------------------------------------------------------------------------|
|--------------------------------------------------------------------------|
|7----------7/10--10--------10/9-9--------9/6--6---------------------------|
|x--000-----x/x----x--000----x/x-x--000---x/x--x---------------------------|
|5--000-x6--5/8----8--000x2--8/7-7--000x2-7/4--4---------------------------|
|---000---------------000-----------000------------------------------------|
     ...               ...           ...
|--------------------------------------------------------------------------|
|--------------------------------------------------------------------------|
|-------7/10-10--------10/9-9--------9/10-10-------------------------------|
|000----x/x---x--000----x/x-x-000----x/x---x----000------------------------|
|000x6--5/8---8--000x2--8/7-7-000x2--7/8---8----000x6----------------------|
|000-------------000----------000---------------000------------------------|
 ...             ...          ...               ...
|--------------------------------------------------------------------------|
|--------------------------------------------------------------------------|
|10/14-14---------14/12-12----------12/9-9---------------------------------|
|-x/-x--x--000-----x/-x--x--000------x/x-x---000---------------------------|
|-8/12-12--000x2--12/10-10--000x2---10/7-7---000x6-------------------------|
|----------000--------------000--------------000---------------------------|
           ...              ...              ...
|-------------------------------------------------------------------|
|-------------------------------------------------------------------|
|10/14-14---------14/12-12----------12/7-7--------------------------|
|-x/-x--x--000-----x/-x--x--000------x/x-x--------------------------|
|-8/12-12--000x2--12/10-10--000x2---10/5-5--------------------------|
|----------000--------------000-------------------------------------|
           ...              ...
|--------------------------------------------------------------------------|
|--------------------------------------------------------------------------|
|----7---------------------------------------------------------------------|
|0---x--0--------------------------------0------0-0--0-0-------------------|
|0---5--0----------10-12-8-10-7-8-5-7----0------0-0--0-0-------------------|
|0------0--------------------------------0------0-0--0-0-------------------|
  .      .         ^(tremelo palm mute)^  .        .
(figure out pattern for mutes)
|--------------------------|-first time-----|-second time-----|
|--------------------------|----------------|-----------------|
|10-------12--------14-----|-14/15/14/10/12-|--9h10p9----7~---|(x2)
|x-(x8)----x-(x8)----x(x8)-|--x/-x/-x/-x/-x-|---------10------|
|8--------10--------12-----|-12/13/12/-8/10-|-----------------|
|--------------------------|----------------|-----------------|
|-------Other guitar----------------------------|
|-----------------------------------------------|
|-7---------------------------------------------|
|-x--------(with a bend now and then)-----------|
|-5---------------------------------------------|
|-----------------------------------------------|
|---------|---|-----(this)-------|---(or this)----------|Either of these
|---------|---|------------------|--------13--13--------|work after two
|---------|---|---------17-------|10--10----------------|of the first part
|0-0---00-|(x2)--14------x(x4)---|--14--14--14--14------|
|0-0---00-|---|--12(x4)-15-------|----------------------|
|0-0---00-|---|------------------|----------------------|
    .
|--------------------------------------------------------------------------|
|--------------------------------------------------------------------------|
|--------------------------------------------------------------------------|
|0~--p/----8-7-0-00------------0-0-0--000---8-0-0--------0-0--10-0-0-------|
|0~--p/----8-7-0-00---12-10-8--0-0-0--000x2-8-0-0--10-12-0-0--10-0-0-12-15-|
|0~--p/----8-7-0-00-----0--0---0-0-0--000---8-0-0----0---0-0--10-0-0---0---|
                  ..     .  .   . . .  ...     . .    .   . .     . .   .
|--------------------------------------------------------------------------|
|--------------------------------------------------------------------------|
|--------------------------------------------------------------------------|
|-00-0-00-----------0-0-0--000---0-00-10---00-0-00-8----0-0-0--------------|
|-00-0-00--12-10-8--0-0-0--000x2-0-00---12-00-0-00--12--0-0-0---+10--------|
|-00-0-00----0--0---0-0-0--000---0-00------00-0-00------0-0-0--------------|
   ..   ..    .  .   . . .  ...     ..      ..   ..      . . .
|--------------------------------------------------------------------------|
|--------------------------------------------------------------------------|
|--------------------------------------------------------------------------|
|0-0-0--000------------10-----------8------0-0-0-------0-0-0-000-----------|
|0-0-0--000x2------------12----------12----0-0-0-+10---0-0-0-000x2---------|
|0-0-0--000-----0-0-0-------0-0-0----------0-0-0-------0-0-0-000-----------|
  . . .  ...     . . .       . . .          . . .       . . . ...
|--------------------------|-----------------------|--{21}-----------------|
|--------------------------|-----------------------|-----{21}--------------|
|--------------------------|-----------------------|---------{21}----------|
|------10------------8-----|(x2)----0~----00--0-0-0|(x2)---------{21}------|
|--------12-----------12---|--------0~----00--0-0-0|-----------------------|
|0-0-0--------0-0-0--------|--------0~----00--0-0-0|-----------------------|
  . . .        . . .                       ..  . . .
|------------------------------------|------------|
|------------------------------------|------------|
|------------------------------------|------------|
|8------10-------12--------10--------|(x4)--------|
|8(x16)-10(x16)--12(x16)---10(x16)---|------------|
|8------10-------12--------10--------|------------|
The ending is...
|---------|---|-----(this)-------|---(or this)----------|Either of these
|---------|---|------------------|--------13--13--------|work after two
|---------|---|---------17-------|10--10----------------|of the first part
|0-0---00-|(x2)--14------x(x4)---|--14--14--14--14------|
|0-0---00-|---|--12(x4)-15-------|----------------------|
|0-0---00-|---|------------------|----------------------|
    .
...with some pull offs on a low note towards the end.
{ } =Harmonic
+   =Pinch
=========================================================================
Assistant to the Regional Manager
The Devil Wears Prada
With Roots Above and Branches Below
Tabbed by: Conner
Email: www.youtube.com/KillswitchEngage42
I have a video up on Youtube under the name KillswitchEngage42. Check it out :) Rate and
please too. And if you have corrections, which there probably will be, Just leave a
and I'll fix it.
Tuning: Drop B
Intro: WIth Delay x however many, I think you can figure it out
e|----8---------------------------------------------------------------------|
B|-------6-8-10-----10--8-6-------------------------------------------------|
G|-7-------------7----------------------------------------------------------|
D|--------------------------------------------------------------------------|
A|--------------------------------------------------------------------------|
E|--------------------------------------------------------------------------|
Little verse thing :) x2
e|--------------------------------------------------------------------------|
B|--------------------------------------------------------------------------|
G|--------------------------------------------------------------------------|
D|--------------------------------------------------------------------------|
A|--------------------------------------------------------8--8--8/12-10-8---|
E|000-15-00-1414-14\-0000-888-00-33---000-15-00-1414--0000--0--0------------|
  ...    ..          ....     ..      ...    ..       ....  .  .
Clean vox part: Love Jeremy's voice here
e|--------------------------------------------------------------------------|
B|--------------------------------------------------------------------------|
G|--------------------------------------------------------------------------|
D|------------------------33-3---33-3---33-33-------------------------------|
A|00-0---00-0---00-00-x2--11-1---11-1---11-11---55-5---55-5---55-55---------|
E|00-0---00-0---00-00---------------------------55-5---55-5---55-55---------|
  .      .      .. .      .      .      .. .    .      .      .. .
Beautiful sweeping part with delay x2
e|17p13-------13h17p13-------------------------------------------------------|
B|-----15---15--------15-----------------------------------------------------|
G|-------14-------------14--14h15p14-----------------------------------------|
D|----------------------------------15h17-14h15p14---------------------------|
A|------------------------------------------------15h17----------------------|
E|---------------------------------------------------------------------------|
e|17p13------13h17p13--------------------------17/20-------------------------|
B|-----15--15--------15------------------------------------------------------|
G|-------14------------14--14h15p14------17\14-------------------------------|
D|---------------------------------15h17-------------------------------------|
A|---------------------------------------------------------------------------|
E|---------------------------------------------------------------------------|
Bridge to next verse with open B power chords
e|--------------------------------------------------------------------------|
B|--------------------------------------------------------------------------|
G|--------------------------------------------------------------------------|
D|--------------------------------------------------------------------------|
A|0-0-0-0-0-0-0-0-----------------------------------------------------------|
E|0-0-0-0-0-0-0-0-PICK SLIDE -----------------------------------------------|
Verse sort of deal- the little fill riff in the left speaker I'm not sure about so leave
comment of what you think it is :)
e|--------------------------------------------------------------------------|
B|--------------------------------------------------------------------------|
G|--------------------------------------------------------------------------|
D|--------------------------------------------------------------------------|
A|---7-5-----8-7--0000000000000000-second time-000-000-000-000--------------|
E|55--5---88--8---0000000000000000-------------000-000-000-000--------------|
   .  .    .  .   ................             ... ... ... ...
Love the Keys here
e|--------------------------------------------------------------------------|
B|--------------------------------------------------------------------------|
G|--------------------------------------------------------------------------|
D|--------------------------------------------------------------------------|
A|000-000-000-000-000-000-000---000-000-0h8h12-0h812-0h7h10-0h5h8-----------|
E|000-000-000-000-000-000-000---000-000-------------------------------------|
  ... ... ... ... ... ... ...   ... ...
e|--------------------------------------------------------------------------|
B|--------------------------------------------------------------------------|
G|--------------------------------------------------------------------------|
D|--------------------------------------------------------------------------|
A|000-000-000-000-000-000-000---000-000-0h7h10-0h7h10-0h5h8-0h4h7-----------|
E|000-000-000-000-000-000-000---000-000-------------------------------------|
  ... ... ... ... ... ... ...   ... ...
this part x2 except the last time
e|--------------------------------------------------------------------------|
B|--------------------------------------------------------------------------|
G|--------------------------------------------------------------------------|
D|----------------------------------------------------------------0---------|
A|000-000-000-000-000-000-000---000-000-0h7h10-0h7h10-0h5h8-0h4h5-0hold-----|
E|000-000-000-000-000-000-000---000-000---------------------------0---------|
  ... ... ... ... ... ... ...   ... ...
With delay
e|------------------------------------------------17--17---------------------|
B|15--1515--1515--18--1818----18--15--1515--15-------------------------------|
G|--17----17----17--17----1717--17--17----17--1717--17-----------------------|
D|---------------------------------------------------------------------------|
A|---------------------------------------------------------------------------|
E|---------------------------------------------------------------------------|
e|--------------------------------------------------------------------------|
B|--------------------------------------------------------------------------|
G|--------------------------------------------------------------------------|
D|--------------------------------------------------------------------------|
A|0000000000000000-333333333333333-0000000000000000-5555555588888888--------|
E|0000000000000000-333333333333333-0000000000000000-5555555588888888--------|
  THe next is same but palm muted
The first verse repeated but with an exta 8/12 10 8 at the end and then...
e|--------------------------------------------------------------------------|
B|--------------------------------------------------------------------------|
G|--------------------------------------------------------------------------|
D|--------------------------------------------------------------------------|
A|8-3---------------0321012--------------0320-------------------------------|
E|8-3--11-1~-11-1~--0321012--11-1~-11-1~-0320-------------------------------|
       .     .               .     .
Breakdown
e|--------------------------------------------------------------------------|
B|--------------------------------------------------------------------------|
G|--------------------------------------------------------------------------|
D|--------------------------------------------------------------------------|
A|00-00-0-0--0-0-0-0--00-00-0-0-0-0-0000------x2----------------------------|
E|00-00-0-0--0-0-0-0--00-00-0-0-0-0-0000slide-------------------------------|  .. .. . .
. . . .  .. .. . . . . ....
All the rest includes palm muted 1's instead of palm muted 0's. And then go back and
the same pattern that is listed above to end the song.
| /  slide up
| \  slide down
| h  hammer-on
| p  pull-off
| ~  vibrato
====================================================================
Tabbed by: BILLYutm
Song: Dez Moines
Band: The Devil Wears Prada
Tuning:Drop D
e|------------------|
B|------------------|
G|-7---9---10--12---|
D|------------------|
A|-5---7---8---10---|
D|------------------|
with delay
e|--------------------------------------------------------------|
B|-----------------------------10101010-8--11-10-131313131313---|
G|-99999--10--9-999-1212-1010-----------------------------------| 2X
D|--------------------------------------------------------------|
A|--------------------------------------------------------------|
D|--------------------------------------------------------------|
e|------------------|
B|------------------|
G|------------------|
D|-0-------8---10---|
A|-0-------8---10---|
D|-0-------8---10---|
e|-------------------------------------------------------------|
B|-------------------------------------------------------------|
G|-------------------------------------------------------------|
D|-------------------------------------------------------------|
A|------12---------1212------12-----88888888-1010101010101010--|
D|-0000----0-0-000------0000----0-0-88888888-1010101010101010--|
e|-------------------------------------------------------------------------|
B|-------------------------------------------------------------------------|
G|-----------------------------------------------14-14-14---12-12-12-------|
D|-------------------------------------------------------------------------|
A|--------12----------------1212-------12--------12-12-12---10-10-10-------|
D|-0000000--0000000000000000----0000000--000000----------------------------|
e|-----|
B|-----|
G|-----|
D|-0---|
A|-0---|
D|-0---|
Cool Riff
e|---------------------------------------|
B|---------------------------------------|
G|---------------------------------------| 4x
D|---------------------------------------|
A|-12----13-12-15-13-12----------10-8-7--|
D|---000----------------00000000---------|
e|---------------------------------------|
B|---------------------------------------|
G|---------------------------------------|
D|---------------------------------------|
A|-12----13-12-15-17-15--------13-12-----|
D|---000----------------000000-----------|
e|---------------------|
B|---------------------|
G|---------------------|
D|---------------------|
A|-0--00-00-00-00-00---|
D|-0--00-00-00-00-00---|
e|---------------------------------------|
B|---------------------------------------|
G|---------------------------------------|
D|---------------------------------------|
A|-12----13-12-15-17-15--------13-12-----|
D|---000----------------000000-----------|
e|-------------------------------------|
B|-------------------------------------|
G|-------------------------------------|
D|-------------------------------------|
A|-0--00-00-00--00-00-00--00-00-0------|
D|-0--00-00-00--00-00-00--00-00-0------|
e|----------------------------------------------|
B|----------------------------------------------|
G|-------------------------------------14-12----|
D|----------------------------------------------|
A|-0--00-00-00--00-00-00--00-00-00-00--12-10----|
D|-0--00-00-00--00-00-00--00-00-00-00-----------|
e|-------15h17p15--------|  |-------15h17p15-----| repeat
B|-13h15----------18-17--|  |-13h15----------15--| both 4x
G|-----------------------|  |--------------------|
D|-----------------------|  |--------------------|
A|-----------------------|  |--------------------|
D|-----------------------|  |--------------------|
e|-------------|
B|-------------|
G|-------------|you figure out stumming patturn
D|-8--5--0--0--|
A|-8--5--0--0--|
D|-8--5--0--0--|
e|---------|
B|---------|
G|---------|
D|-8---5---|
A|-8---5---|
D|-8---5---|
e|---------------------------------------|
B|---------------------------------------|
G|---------------------------------------|
D|---------------------------------------|
A|------------------4444444444444444-----|
D|-0000000000000000----------------------|
e|------------------------------------|
B|------------------------------------|you figure out stumming patturn
G|-14--15--17--18--19--21--22--24-----|
D|------------------------------------|
A|-12--13--15--16--17--19--20--22-----|
D|------------------------------------|
e|-------------------|
B|-------------------|
G|-------------------|
D|-------------------|
A|-------------------|
D|-0000000000000000--|
Breakdown
e|-----------------------------------------------------------|
B|-----------------------------------------------------------|
G|-----------------------------------------------------------|
D|---------7---------------------------7---------------------|
A|-----8-5-------------------------8-5---------------8-7-8---|
D|-000-------0-0-000-0-000-000-000-------0-0-000-000---------|
e|-----------------------------------------------------------------|
B|-----------------------------------------------------------------|
G|-----------------------------------------------------------------|
D|----------10----------------------------10-----------------------|
A|-----12-8--------------------------12-8----------------12-10-12--|
D|-000---------0-0-000-0-000-000-000---------0-0-000-000-----------|
e|-------------------------------|
B|-------------------------------| 2x
G|-------------------------------|
D|-------------------------------|
A|-000------------000-0-000-000--|
D|-000------------000-0-000-000--|
e|---------------------------------------------------------------|
B|---------------------------------------------------------------|
G|---------------------------------------------------------------|
D|---------7---------------------------7-------------------------|
A|-----8-5-------------------------8-5---------------------------|
D|-000-------0-0-000-0-000-000-000-------0-0-0-0000000000000000--|
this next part is pick very fast
so basiclly double what i wrote down on the next part
with delay
e|-----------------------------------------------------------------------|
B|----------------------------------------------66666666666666666666666--|
G|-777777777777777777777777777777--999999999999--------------------------|
D|-----------------------------------------------------------------------|
A|-----------------------------------------------------------------------|
D|-----------------------------------------------------------------------|
e|---------------------------------------------------------------|
B|-1010101010101010--12121212-14141414-101010101010101010101010--|
G|---------------------------------------------------------------|
D|---------------------------------------------------------------|
A|---------------------------------------------------------------|
D|---------------------------------------------------------------|
e|-------------------------------------------------------------------------|
B|151515151515151515151515151515151515--1717171717171717--1818181818181818-|
G|-------------------------------------------------------------------------|
D|-------------------------------------------------------------------------|
A|-------------------------------------------------------------------------|
D|-------------------------------------------------------------------------|
e|-20--18--17--18--17--|
B|---------------------|
G|---------------------|
D|---------------------|
A|---------------------|
D|---------------------|
e|---------------------------------------|
B|---------------------------------------|
G|---------------------------------------| 4x
D|---------------------------------------|
A|-12----13-12-15-13-12----------10-8-7--|
D|---000----------------00000000---------|
e|---------------------------------------|
B|---------------------------------------|
G|---------------------------------------|
D|---------------------------------------|
A|-12----13-12-15-17-15--------13-12-----|
D|---000----------------000000-----------|
e|---------------------|
B|---------------------|
G|---------------------|
D|---------------------|
A|-0--00-00-00-00-00---|
D|-0--00-00-00-00-00---|
e|---------------------------------------|
B|---------------------------------------|
G|---------------------------------------|
D|---------------------------------------|
A|-12----13-12-15-17-15--------13-12-----|
D|---000----------------000000-----------|
e|-------------------------------------|
B|-------------------------------------|
G|-------------------------------------|
D|-------------------------------------|
A|-0--00-00-00--00-00-00--00-00-0------|
D|-0--00-00-00--00-00-00--00-00-0------|
Thanks for checking this out =]
| /  slide up
| \  slide down
| h  hammer-on
| p  pull-off
| ~  vibrato
| +  harmonic
| x  Mute note
================================================================
Tabbed by: catalan123
Song: Big Wiggly Style
Band: The Devil Wears Prada
Tuning: Drop D.
Guitar 1 & 2 do this section twice
E|------------------------------------------------------------|
B|------------------------------------------------------------|
G|------------------------------------------------------------|
D|------------------------------------------------------------|
A|-0-0--0-0----0----0--------------0-0-0-0-0-0-0-0------------|
D|-0-0--0-0----0----0--------------0-0-0-0-0-0-0-0------------|
   . .  . .    .    .              . . . . . . . .
E|------------------------------------------------------------|
B|------------------------------------------------------------|
G|------------------------------------------------------------|
D|------------------------------------------------------------|
A|-0-0--0-0----0----0----0----0----0-0-0-0-0-0-0-0------------|
D|-0-0--0-0----0----0----0----0----0-0-0-0-0-0-0-0------------|
   . .  . .    .    .    .    .    . . . . . . . .
Guitar 1 (Left)
E|------------------------------|------------------------------|
B|------------------------------|------------------------------|
G|-7----7----7---10--9--12--10--|-9----10--12----7~----6~------|
D|----0----0--------------------|----0---------0---------------|
A|----.----.--------------------|----.---------.---------------|
D|------------------------------|------------------------------|
  Guitar 2 (Right)
E|--------------------------------|------------------------------|
B|--------------------------------|------------------------------|
G|-10---10---10---14--12--15--14--|-12---14--15----10~----9~-----|
D|----0----0----------------------|----0---------0---------------|
A|----.----.----------------------|----.---------.---------------|
D|--------------------------------|------------------------------|
Guitar 1 (Left)
E|------------------------------|-------------------------------|
B|------------------------------|-------------------------------|
G|-7----7----7---10--9--12--10--|-9----10--12-------------------|
D|----0----0--------------------|----0---------0--8------7------|
A|----.----.--------------------|----.---------.--8------7------|
D|------------------------------|-----------------8------7------|
Guitar 2 (Right)
E|--------------------------------|------------------------------|
B|--------------------------------|------------------------------|
G|-10---10---10---14--12--15--14--|-12---14--15------------------|
D|----0----0----------------------|----0---------0--8------7-----|
A|----.----.----------------------|----.---------.--8------7-----|
D|--------------------------------|-----------------8------7-----|
Both Guitars
E|--------------------------------|
B|--------------------------------|
G|--------------------------------|
D|-0------------8--8--7-----------|
A|-0--0-0-0--0--8--8--7-----------|
D|-0--0-0-0--0--8--8--7-----------|
      . . .  .
Guitar 1 (left)
E|---------------------------------------------------------|
B|---------------------------------------------------------|
G|---------------------------------------------------------|
D|-------------------------------------------------10h12---|
A|-0-0-0--0-0-0--7h8p7--0--0-0--0-0--0-0-0--7h8p7----------|
D|-0-0-0--0-0-0---------0--0-0--0-0--0-0-0-----------------|
   . . .  . . .         .  . .  . .  . . .
Guitar 2 (Right)
E|---------------------------------------------------------------|
B|---------------------------------------------------------------|
G|---------------------------------------------------------------|
D|-------------------------------------------------------14h15---|
A|-0-0-0--0-0-0--10h12p10--0--0-0--0-0--0-0-0--10h12p10----------|
D|-0-0-0—-0-0-0------------0--0-0--0-0--0-0-0--------------------|
   . . .  . . .            .  . .  . .  . . .
Guitar 1 (left)
E|----------------------------------------------------------|
B|----------------------------------------------------------|
G|----------------------------------------------------------|
D|----------------------------------------------------------|
A|-0-0-0--0-0-0--7h8p7--0--0-0--0-0--0-0-0---8h10p8--7h8p7--|
D|-0-0-0—-0-0-0---------0--0-0--0-0--0-0-0------------------|
   . . .  . . .         .  . .  . .  . . .
Guitar 2 (Right)
E|----------------------------------------------------------------|
B|----------------------------------------------------------------|
G|----------------------------------------------------------------|
D|----------------------------------------------------------------|
A|-0-0-0--0-0-0--10h12p10--0--0-0--0-0--0-0-0---10h12p10--8h10p8--|
D|-0-0-0--0-0-0------------0--0-0--0-0--0-0-0---------------------|
   . . .  . . .            .  . .  . .  . . .
Guitar 1 (left)
E|---------------------------------------------------------|
B|---------------------------------------------------------|
G|---------------------------------------------------------|
D|-------------------------------------------------10h12---|
A|-0-0-0--0-0-0--7h8p7--0--0-0--0-0--0-0-0--7h8p7----------|
D|-0-0-0--0-0-0---------0--0-0--0-0--0-0-0-----------------|
   . . .  . . .         .  . .  . .  . . .
Guitar 2 (Right)
E|---------------------------------------------------------------|
B|---------------------------------------------------------------|
G|---------------------------------------------------------------|
D|-------------------------------------------------------14h15---|
A|-0-0-0--0-0-0--10h12p10--0--0-0--0-0--0-0-0--10h12p10----------|
D|-0-0-0—-0-0-0------------0--0-0--0-0--0-0-0--------------------|
   . . .  . . .            .  . .  . .  . . .
Guitar 1 (left)
E|----------------------------------------------------|
B|----------------------------------------------------|
G|----------------------------------------------------|
D|----------------------------------------------------|
A|-0-0-0--0-0-0--7h8p7--0--0-0--0-0--0-0-0------------|
D|-0-0-0--0-0-0---------0--0-0--0-0--0-0-0--8*--------|
   . . .  . . .         .  . .  . .  . . .
Guitar 2 (Right)
E|-----------------------------------------------------|
B|-----------------------------------------------------|
G|-----------------------------------------------------|
D|-----------------------------------------------------|
A|-0-0-0--0-0-0--10h12p10--0--0-0--0-0--0-0-0----------|
D|-0-0-0—-0-0-0------------0--0-0--0-0--0-0-0--8*------|
   . . .  . . .            .  . .  . .  . . .
Guitar 1 (left)
E|-------------------------------------------------------|
B|-------------------------------------------------------|
G|-------------------------------------------------------|
D|-------------------------------------------------------|
A|-0-0-0--0-0-0---------0--0-0--0-0--0-0-0--0-0-0-0------|
D|-0-0-0--0-0-0---------0--0-0--0-0--0-0-0--0-0-0-0------|
   . . .  . . .         .  . .  . .  . . .  . . . .
Guitar 2 (Right)
E|-------------------------------------------------------|
B|-------------------------------------------------------|
G|-------------------------------------------------------|
D|-------------------------------------------------------|
A|-0-0-0--0-0-0---------0--0-0--0-0--0-0-0--0-0-0-0------|
D|-0-0-0--0-0-0---------0--0-0--0-0--0-0-0--0-0-0-0------|
   . . .  . . .         .  . .  . .  . . .  . . . .
Guitar 1 (left)
E|---------------------------------------------------------|
B|---------------------------------------------------------|
G|---------------------------------------------------------|
D|---------------------------------------------------------|
A|-0-0-0--0-0-0---------0--0-0--0-0--0-0-0--0-0-0-0--8*----|
D|-0-0-0--0-0-0---------0--0-0--0-0--0-0-0--0-0-0-0--------|
   . . .  . . .         .  . .  . .  . . .  . . . .
Guitar 2 (Right)
E|---------------------------------------------------------|
B|---------------------------------------------------------|
G|---------------------------------------------------------|
D|---------------------------------------------------------|
A|-0-0-0--0-0-0---------0--0-0--0-0--0-0-0--0-0-0-0--------|
D|-0-0-0--0-0-0---------0--0-0--0-0--0-0-0--0-0-0-0----8*--|
   . . .  . . .         .  . .  . .  . . .  . . . .
Guitar 1 (left)
E|-------------------------------------------------------|
B|-------------------------------------------------------|
G|-------------------------------------------------------|
D|-------------------------------------------------------|
A|-0-0-0--0-0-0---------0--0-0--0-0--0-0-0--0-0-0-0------|
D|-0-0-0--0-0-0---------0--0-0--0-0--0-0-0--0-0-0-0------|
   . . .  . . .         .  . .  . .  . . .  . . . .
Guitar 2 (Right)
E|-------------------------------------------------------|
B|-------------------------------------------------------|
G|-------------------------------------------------------|
D|-------------------------------------------------------|
A|-0-0-0--0-0-0---------0--0-0--0-0--0-0-0--0-0-0-0------|
D|-0-0-0--0-0-0---------0--0-0--0-0--0-0-0--0-0-0-0------|
   . . .  . . .         .  . .  . .  . . .  . . . .
Both Guitars
E|---------------------------------------------------------------------|
B|---------------------------------------------------------------------|
G|---------------------------------------------------------------------|
D|---------------------------------------------------8--7--5--0--------|
A|-0-0-0--0-0-0---------0--0-0--0-0--0-0-0--0-0-0-0--8--7--5--0--------|
D|-0-0-0--0-0-0---------0--0-0--0-0--0-0-0--0-0-0-0--8--7--5--0--------|
   . . .  . . .         .  . .  . .  . . .  . . . .
Both Guitars (Blood to the sky)
E|-------------|
B|-------------|
G|-------------|
D|-0-----------|
A|-0-----------|
D|-0-----------|
   .
Guitar 1
Sorry guys I tried so hard to figure out the lead riff on this
part but I just could'nt sorry. If anyone figures it out or
knows it please post it as a correction or comment. Thanx =)
Guitar 2 (Right)
E|------------------------------------------------------|
B|------------------------------------------------------|
G|------------------------------------------------------|
D|-3----3------5----5------0---0------0----0------------| Repeat 2x
A|-3----3-x14--5----5-x14--0---0-x14--0----0-x14--------|
D|-3----3------5----5------0---0------0----0------------|
1:25
Both Guitars
E|-----------------------|-----------------------|
B|-----------------------|-----------------------|
G|-----------------------|-----------------------|
D|-----------------------|-----------------------|
A|-0--0-0-0-0------------|---------------0----0--|
D|-0--0-0-0-0------------|---------------0----0--|
   .  . . . .                            .    .     Reapeat 2x
E|-----------------------|-----------------------|
B|-----------------------|-----------------------|
G|-----------------------|-----------------------|
D|-----------------------|------------8---7---5--|
A|----0-0-0-0----0----0--|----0----0--8---7---5--|
D|----0-0-0-0----0----0--|----0----0--8---7---5--|
      . . . .    .    .       .    .
1:37
Both Guitars (play this slower)
E|-----------------------|-----------------------|
B|-----------------------|-----------------------|
G|-----------------------|-----------------------|
D|-----------------------|-----------------------|
A|-0--0-0-0-0------------|---------------0----0--|
D|-0--0-0-0-0------------|---------------0----0--|
   .  . . . .                            .    .     Reapeat 2x
E|-----------------------|-----------------------|
B|-----------------------|-----------------------|
G|-----------------------|-----------------------|
D|-----------------------|------------8---7---5--|
A|-0--0-0-0-0----0----0--|----0----0--8---7---5--|
D|-0--0-0-0-0----0----0--|----0----0--8---7---5--|
   .  . . . .    .    .       .    .
Guitar 1 (Left)
E|-------------|
B|-------------|
G|-------------|
D|-8-----------|
A|-8--x32------|
D|-8-----------|
Guitar 2 (Right)
E|------------------------------|
B|------------------------------|
G|------------------------------|
D|-10------14-----12-----17-----|
A|-x--x12--x--x4--x--x8--x--x8--|
D|-8-------12-----10-----15-----|
1:58
Guitar 1 (Left)
E|------------------------------------------------------|
B|------------------------------------------------------|
G|------------------------------------------------------|
D|------------------------------------------------------|
A|-5---------5p3h5---------8p7h8---------12----10----8--|
D|---0-0-0-0-------0-0-0-0-------0-0-0-0---0-0---0-0----|
     . . . .       . . . .       . . . .   . .   . .
Guitar 2 (Right)
E|------------------------------------------------------|
B|------------------------------------------------------|
G|------------------------------------------------------|
D|-0--------0-0-0---------0-0-0---------0-----0---------|
A|-0--------0-0-0---------0-0-0---------0-----0------0--|
D|-0--------0-0-0---------0-0-0---------0-----0------0--|
   .        . . .         . . .         .     .      .
Guitar 1 (Left)
E|------------------------------------------------------|
B|------------------------------------------------------|
G|------------------------------------------------------|
D|-------------10---------------------------------------|
A|--------------------8-----10-----10-----12-----10-----|
D|-0-0-0-0-0-0----0-0---0-0----0-0----0-0----0-0--------|
   . . . . . .    . .   . .    . .    . .    . .
Guitar 2 (Right)
E|-------------|-------------|
B|-------------|-------------|
G|-------------|-------------|
D|-8-----------|-------------|
A|-8-----------|-(pickslide)-|
D|-8-----------|-------------|
2:03
Guitar 1 (Left)
E|------------------------------------------------------|
B|------------------------------------------------------|
G|------------------------------------------------------|
D|------------------------------------------------------|
A|-5---------5p3h5---------8p7h8---------12----10----8--|
D|---0-0-0-0-------0-0-0-0-------0-0-0-0---0-0---0-0----|
     . . . .       . . . .       . . . .   . .   . .
Guitar 2 (Right)
E|-----------------------------------------------------------|
B|-----------------------------------------------------------|
G|-----------------------------------------------------------|
D|-----------------------------------------------------------|
A|-8---------8p7h8---------12p10h12--------15------13----12--|
D|---0-0-0-0-------0-0-0-0----------0-0-0-0----0-0---0-0-----|
     . . . .       . . . .          . . . .    . .   . .
Guitar 1 (Left)
E|------------------------------------------------------|
B|------------------------------------------------------|
G|------------------------------------------------------|
D|-------------10---------------------------------------|
A|--------------------8-----10-----10-----12-----10-----|
D|-0-0-0-0-0-0----0-0---0-0----0-0----0-0----0-0--------|
   . . . . . .    . .   . .    . .    . .    . .
Guitar 2 (Right)
E|-------------------------------|
B|-------------------------------|
G|-------------------------------|
D|------8----8---------5----5----|
A|------8----8---------5----5----|
D|-8-x8-8----8----5-x8-5----5----|
   .              .
Guitar 1 (Left)
E|------------------------------------------------------|
B|------------------------------------------------------|
G|------------------------------------------------------|
D|------------------------------------------------------|
A|-5---------5p3h5---------8p7h8---------12----10----8--|
D|---0-0-0-0-------0-0-0-0-------0-0-0-0---0-0---0-0----|
     . . . .       . . . .       . . . .   . .   . .
Guitar 2 (Right)
E|-----------------------------------------------------------|
B|-----------------------------------------------------------|
G|-----------------------------------------------------------|
D|-----------------------------------------------------------|
A|-8---------8p7h8---------12p10h12--------15------13----12--|
D|---0-0-0-0-------0-0-0-0----------0-0-0-0----0-0---0-0-----|
     . . . .       . . . .          . . . .    . .   . .
Guitar 1 (Left)
E|------------------------------------------------------|
B|------------------------------------------------------|
G|------------------------------------------------------|
D|-------------10---------------------------------------|
A|--------------------8-----10-----10-----12------------|
D|-0-0-0-0-0-0----0-0---0-0----0-0----0-0---------------|
   . . . . . .    . .   . .    . .    . .
Guitar 2 (Right)
E|-------------------------------|
B|-------------------------------|
G|-------------------------------|
D|------8----8---------7---------|
A|------8----8---------7---------|
D|-8-x8-8----8----7-x8-7---------|
   .              .
2:16
Guitar 1 (Left)
E|------------------------------------------------------|
B|------------------------------------------------------|
G|------------------------------------------------------|
D|------------------------------------------------------|
A|-5---------5p3h5---------8p7h8---------12----10----8--|
D|---0-0-0-0-------0-0-0-0-------0-0-0-0---0-0---0-0----|
     . . . .       . . . .       . . . .   . .   . .
Guitar 2 (Right)
E|------------------------------------------------------|
B|------------------------------------------------------|
G|------------------------------------------------------|
D|------------------------------------------------------|
A|-0--------0-0-0---------0-0-0-------------0-0-0-0-0-0-|
D|-0--------0-0-0---------0-0-0-------------0-0-0-0-0-0-|
   .        . . .         . . .             . . . . . .
Guitar 1 (Left)
E|----------------------------------------------------------|
B|----------------------------------------------------------|
G|----------------------------------------------------------|
D|----------------------------------------------------------|
A|-------------8p7h8----------7p5h7---------5p3h5-----8*----|
D|-0-0-0-0-0-0-------0-0-0-0--------0-0-0-0-------0-0-------|
   . . . . . .       . . . .        . . . .       . .
Guitar 2 (Right)                                               Repeat 2x
E|------------------------------------------------------|
B|------------------------------------------------------|
G|------------------------------------------------------|
D|------------------------------------------------------|
A|-8-8--------8-8-8-8--------8-8------------------------|
D|-8-8--------8-8-8-8--------8-8--5-x16-----------------|
   . .        . . . .        . .  .
2:29
Guitar 1 (Left)
E|-----------------------------------------------------------------|
B|-----------------------------------------------------------------|
G|-----------------------------------------------------------------|
D|-----------------------------------------------------------------|
A|-----------------------------------------5-5-5-5---------5-5-5-5-|
D|-8-8-8-8-8-8-8-8-8-8-8-8-7-7-7-7-5-5-5-5---------5-5-5-5---------|
Guitar 2 (Right)
E|-----------------------------------------------------------------|
B|-----------------------------------------------------------------|
G|-----------------------------------------------------------------|
D|-----------------------------------------------------------------|
A|-----------------------------------------8-8-8-8---------8-8-8-8-|
D|-8-8-8-8-8-8-8-8-8-8-8-8-7-7-7-7-5-5-5-5---------5-5-5-5---------|
Guitar 1 (Left)
E|------------------------------------------------------------------------|
B|------------------------------------------------------------------------|
G|------------------------------------------------------------------------|
D|------------------------------------------------------------------------|
A|-------------------------------------------------12-12-12-12-------10-x4|
D|-8-8-8-8-8-8-8-8-8-8-8-8-10-10-10-10-12-12-12-12-------------10-x4------|
Guitar 2 (Right)
E|------------------------------------------------------------------------|
B|------------------------------------------------------------------------|
G|------------------------------------------------------------------------|
D|------------------------------------------------------------------------|
A|-------------------------------------------------15-15-15-15-------13-x4|
D|-8-8-8-8-8-8-8-8-8-8-8-8-10-10-10-10-12-12-12-12-------------10-x4------|
Guitar 1 (Left)
E|-----------------------------------------------------------------|
B|-----------------------------------------------------------------|
G|-----------------------------------------------------------------|
D|-----------------------------------------------------------------|
A|-----------------------------------------5-5-5-5---------5-5-5-5-|
D|-8-8-8-8-8-8-8-8-8-8-8-8-7-7-7-7-5-5-5-5---------5-5-5-5---------|
Guitar 2 (Right)
E|-----------------------------------------------------------------|
B|-----------------------------------------------------------------|
G|-----------------------------------------------------------------|
D|-----------------------------------------------------------------|
A|-----------------------------------------8-8-8-8---------8-8-8-8-|
D|-8-8-8-8-8-8-8-8-8-8-8-8-7-7-7-7-5-5-5-5---------5-5-5-5---------|
Guitar 1 (Left)
E|------------------------------------------------------------------------|
B|------------------------------------------------------------------------|
G|------------------------------------------------------------------------|
D|------------------------------------------------------------------------|
A|-------------------------------------------------12-12-12-12-------15-x4|
D|-8-8-8-8-8-8-8-8-8-8-8-8-10-10-10-10-12-12-12-12-------------10-x4------|
Guitar 2 (Right)
E|------------------------------------------------------------------------|
B|------------------------------------------------------------------------|
G|------------------------------------------------------------------------|
D|------------------------------------------------------------------------|
A|-------------------------------------------------15-15-15-15-------15-x4|
D|-8-8-8-8-8-8-8-8-8-8-8-8-10-10-10-10-12-12-12-12-------------10-x4------|
Guitar 1 (Left)
E|-----------------------------------------------------------------|
B|-----------------------------------------------------------------|
G|-----------------------------------------------------------------|
D|-----------------------------------------------------------------|
A|-----------------------------------------5-5-5-5---------5-5-5-5-|
D|-8-8-8-8-8-8-8-8-8-8-8-8-7-7-7-7-5-5-5-5---------5-5-5-5---------|
Guitar 2 (Right)
E|-----------------------------------------------------------------|
B|-----------------------------------------------------------------|
G|-----------------------------------------------------------------|
D|-----------------------------------------------------------------|
A|-----------------------------------------8-8-8-8---------8-8-8-8-|
D|-8-8-8-8-8-8-8-8-8-8-8-8-7-7-7-7-5-5-5-5---------5-5-5-5---------|
Guitar 1 (Left)
E|-----------------------------------------------------------------|
B|-----------------------------------------------------------------|
G|-----------------------------------------------------------------|
D|-----------------------------------------------------------------|
A|-------------------------------------------------12~---10~-------|
D|-8-8-8-8-8-8-8-8-8-8-8-8-10-10-10-10-12-12-12-12-----------------|
Guitar 2 (Right)
E|------------------------------------------------------------------|
B|------------------------------------------------------------------|
G|------------------------------------------------------------------|
D|------------------------------------------------------------------|
A|-------------------------------------------------8~---7~----------|
D|-8-8-8-8-8-8-8-8-8-8-8-8-10-10-10-10-12-12-12-12------------------|
2:53
Guitar 1 (Left)
E|-----------------------------------------------------------------| --
B|-----------------------------------------------------------------|  |
G|-----------------------------------------------------------------|  |
D|-----------------------------------------------------------------|  |
A|-5-5-5-5-5-5-5-5-5-5-5-5-5-5-5-5-5-5-5-5-5-5-5-5-7-7-7-7-8-8-8-8-|  |
D|-----------------------------------------------------------------|  |
Guitar 2 (Right)                                                      |
E|-------------|                                                      |
B|-------------|                                                      |
G|-------------|                                                      |
D|-0-----------|                                                      |
A|-0-----------|                                                      |
D|-0-----------|                                                      |
                                                                      |
Guitar 1 (Left)                                                       |
E|-------------------------------------------------|                  |
B|-------------------------------------------------|                  |
G|-------------------------------------------------|                  |
D|-------------------------------------------------|                  |
A|-7-7-7-7-7-7-7-7-7-7-7-7-7-7-7-7-7-7-7-7-7-7-7-7-|                  |
D|-------------------------------------------------|                  |
Guitar 2 (Right)                                                      |
E|-------------|                                                      |
B|-------------|                                                      |
G|-------------|                                                      |
D|-3-----------|                                                      |
A|-3-----------|                                   Repeat all of this |-2x
D|-3-----------|                                                      |
                                                                      |
Guitar 1 (Left)                                                       |
E|------------------------------|                                     |
B|------------------------------|                                     |
G|------------------------------|                                     |
D|------------------------------|                                     |
A|-12-x24-10-10-10-10-8-8-10-10-|                                     |
D|------------------------------|                                     |
Guitar 2 (Right)                                                      |
E|-------------|                                                      |
B|-------------|                                                      |
G|-------------|                                                      |
D|-8-----------|                                                      |
A|-8-----------|                                                      |
D|-8-----------|                                                      |
                                                                      |
Guitar 1 (Left)                                                       |
E|---------|                                                          |
B|---------|                                                          |
G|---------|                                                          |
D|---------|                                                          |
A|-15-x24--|                                                          |
D|---------|                                                          |
Guitar 2 (Right)                                                      |
E|-------------|-------------------|                                   |
B|-------------|-------------------|                                   |
G|-------------|-------------------|                                   |
D|-5-----------|-5-----------------| on the second time                |
A|-5-----------|-5-----5-x14-------| play this part like this.         |
D|-5-----------|-5-----5-----------|------------------------------------
                       .
3:18
Guitar 1 (Left)
E|-------------------------------------------------|
B|-------------------------------------------------|
G|-------------------------------------------------|
D|-------------------------------------------------|
A|-17-17-17-17-17-17-20-20-20-20-20-20-19-x20------|
D|-------------------------------------------------|
Guitar 2 (Right)
E|-----------------|
B|-----------------|
G|-----------------|
D|-0---------------|
A|-0---0-x12--5p3--|
D|-0---0-----------|
       .
Guitar 1 (Left)
E|-------------------------------------------------|
B|-------------------------------------------------|
G|-------------------------------------17-x20------|
D|-------------------15-15-15-15-15-15-------------|
A|-15-15-15-15-15-15-------------------------------|
D|-------------------------------------------------|
Guitar 2 (Right)
E|--------------------------|
B|--------------------------|
G|--------------------------|
D|--------------------------|
A|-3~----0-x9--3h5--0--3h5--|
D|-------0----------0-------|
         .          .
Guitar 1 (Left)
E|-------------------------------------------------|
B|-------------------------------------------------|
G|-------------------------------------------------|
D|-------------------------------------------------|
A|-17-17-17-17-17-17-20-20-20-20-20-20-19-x20------|
D|-------------------------------------------------|
Guitar 2 (Right)
E|------------------|
B|------------------|
G|------------------|
D|------------------|
A|-3~---0-x12--5p3--|
D|------0-----------|
        .
Guitar 1 (Left)
E|-----------------|
B|-----------------|
G|--19-x16--17x16--|
D|-----------------|
A|-----------------|
D|-----------------|
Guitar 2 (Right)
E|------------------|
B|------------------|
G|------------------|
D|------------5-----|
A|-3~---5-x6--5-x8--|
D|------5-----5-----|
        .
3:31 Repeat this part twice from here...
Guitar 1 (Left)
E|-------------------------------------------------13-x16--|
B|--------------------15-15-15-15-15-15--------------------|
G|--17-17-17-17-17-17-------------------14-14-14-14--------|
D|---------------------------------------------------------|
A|---------------------------------------------------------|
D|---------------------------------------------------------|
Guitar 2 (Right)
E|-------------------------------------------------|
B|-------------------------------------------------|
G|-------------------------------------------------|
D|-7--7--7--7--7--7--7--7--7--7--7--7--7--7--7--7--|
A|-x--x--x--x--x--x--x--x--x--x--x--x--x--x--x--x--|
D|-5--5--5--5--5--5--5--5--5--5--5--5--5--5--5--5--|
Guitar 1 (Left)
E|-------------------------------------------------15-x16--|
B|--------------------15-15-15-15-15-15--------------------|
G|--17-17-17-17-17-17-------------------14-14-14-14--------|
D|---------------------------------------------------------|
A|---------------------------------------------------------|
D|---------------------------------------------------------|
Guitar 2 (Right)
E|-------------------------------------------------|
B|-------------------------------------------------|
G|-------------------------------------------------|
D|-10-10-10-10-10-10-10-10-10-10-10-10-10-10-10-10-|
A|-x--x--x--x--x--x--x--x--x--x--x--x--x--x--x--x--|
D|-8--8--8--8--8--8--8--8--8--8--8--8--8--8--8--8--|
Guitar 1 (Left)
E|-------------------------------------------------13-x16--|
B|--------------------15-15-15-15-15-15--------------------|
G|--17-17-17-17-17-17-------------------14-14-14-14--------|
D|---------------------------------------------------------|
A|---------------------------------------------------------|
D|---------------------------------------------------------|
Guitar 2 (Right)
E|-------------------------------------------------|
B|-------------------------------------------------|
G|-------------------------------------------------|
D|-7--7--7--7--7--7--7--7--7--7--7--7--7--7--7--7--|
A|-x--x--x--x--x--x--x--x--x--x--x--x--x--x--x--x--|
D|-5--5--5--5--5--5--5--5--5--5--5--5--5--5--5--5--|
Guitar 1 (Left)
E|--17-x16--15-x16--|
B|------------------|
G|------------------|
D|------------------|
A|------------------|
D|------------------|
Guitar 2 (Right)
E|-------------------------------------------------|
B|-------------------------------------------------|
G|-------------------------------------------------|
D|-12-12-12-12-12-12-12-12/14-14-14-14-14-14-14-14-|
A|-x--x--x--x--x--x--x--x--x--x--x--x--x--x--x--x--|
D|-10-10-10-10-10-10-10-10/12-12-12-12-12-12-12-12-|
....to here.
Outro: Repeat the following twice.
Guitar 1 (Left)
E|----------------------|-13-------------------|
B|--------15------------|----------------------|
G|-17-------------14----|----------------------|
D|----------------------|----------------------|
A|----------------------|----------------------|
D|----------------------|----------------------|
Guitar 2 (Right)
E|-------------|
B|-------------|
G|-------------|
D|-0-----------|
A|-0-----------|
D|-0-----------|
Guitar 1 (Left)
E|----------------------|-15-------------------|
B|--------15------------|----------------------|
G|-17-------------14----|----------------------|
D|----------------------|----------------------|
A|----------------------|----------------------|
D|----------------------|----------------------|
Guitar 2 (Right)
E|----------------|
B|----------------|
G|----------------|
D|-let-it-Ring----|
A|----------------|
D|----------------|
=====================================================================
-------------------------------------------------------------------------------
			     Danger: Wildman - The Devil Wears Prada
-------------------------------------------------------------------------------
Tabbed by: Me
Let me know if there are any flub ups.
Sometimes type one thing when I mean to type something else......
Let me know if I need to fix anything, and i will :]
Tuning: Droppith to the D
Guitar 1 and 2
e|----|-------------------------------------------|
B|----|-------------------------------------------|
G|----|-------------------------------------------|[x2]
D|-0--|-------------------------------------------|
A|-0--|--------4p5-5------------------------------|
D|-0--|---------------00-0-0-0-0-0-0-0-0-0-000000-|
   .                 ..   .   .   .   .   ......
e|------------------------------------|
B|------------------------------------|
G|------------------------------------|[x2]
D|------------------------------------|
A|-3p4-4------------------------------|
D|--------00-0-0-0-0-0-0-0-0-0-000000-|
          ..   .   .   .   .   ......
  Repeat from top, guiar 2 does this the second time:
e|------------------------------------|
B|------------------------------------|
G|------------------------------------|[x2]
D|------------------------------------|
A|-7p8-8------------------------------|
D|--------00-0-0-0-0-0-0-0-0-0-000000-|
          ..   .   .   .   .   ......
e|------------------------------------|
B|------------------------------------|
G|------------------------------------|[x2]
D|------------------------------------|
A|-6p7-7------------------------------|
D|--------00-0-0-0-0-0-0-0-0-0-000000-|
          ..   .   .   .   .   ......
and end with:
e|-------|
B|-------|
G|-------|
D|---0---|
A|---0---|
E|---0---|
  [Both guitars]
e|----------------------------|
B|----------------------------|
G|----------------------------|
D|-00000-00-00-00-00000-00-00-|[x4 1/2]
A|-00000-00-00-00-00000-00-00-|
E|-00000-00-00-00-00000-00-00-|
  Guitar 2 plays the above again while guitar 1 plays this:
e|---------------------------------------------------------------------------|
B|---------------------------------------------------------------------------|
G|---------------------------------------------------------------------------|
D|-3333333333333333-2222222222222222-7777777777777777-55555555-88888888------|
A|---------------------------------------------------------------------------|
E|---------------------------------------------------------------------------|
                                               Both guitars
e|--------------------------------------------------------------|
B|--------------------------------------------------------------|
G|--------------------------------------------10-10-10-12-12-12-|
D|-3333333333333333-2222222222222222-00000000-x--x--x--x--x--x--|
A|--------------------------------------------8--8--8--10-10-10-|
E|--------------------------------------------------------------|
  "as long as these struggles......" [Both Guitars]
e|-----------------------------------------|
B|-----------------------------------------|
G|-----------------------------------------|
D|-00000000-55555555-88888888-77777777-0~~-|
A|-00000000-55555555-88888888-77777777-0~~-|
E|-00000000-55555555-88888888-77777777-0~~-|
*Pick slides*
  Guitar 1
e|-------------------------------------------------|
B|-------------------------------------------------|
G|-------------------------------------------------|
D|-------------------------------------------------|
A|-8-10-7-7-8-5-7-8-5-4-----8-10-7-7-8-5-7-8-5-4-5-|
E|-------------------------------------------------|
e|-------------------------------------------------------|
B|-------------------------------------------------------|
G|-------------------------------------------------------|
D|-------------------------------------------------------|
A|-12-13-10-10-8-10-12-8-7-----12-13-10-10-8-10-12-8-7-8-|
E|-------------------------------------------------------|
Guitar 2
e|-------------------------------------------------|
B|-------------------------------------------------|
G|-------------------------------------------------|
D|-------------------------------------------------|[x2]
A|-8-10-7-7-8-5-7-8-5-4-----8-10-7-7-8-5-7-8-5-4-5-|
E|-------------------------------------------------|
Here's an alternative to the top riff.
This is the way Jeremy Plays it on this video:
 3Q4Vy3UP8OY
So if you want to play it exactly like them here you go
I just think the other way is easier
e|-------------------------------------------------|
B|-------------------------------------------------|
G|-------------------------------------------------|
D|-3-5-2-2-3-0-2-3---------3-5-2-2-3-0-2-3---------|
A|-----------------5-4---------------------5-4-5---|
E|-------------------------------------------------|
You decide
e|------------------------------------------------------------------|
B|------------------------------------------------------------------|
G|------------------------------------------------------------------|
D|------------------------------------------------------------------|[x2]
A|------------4-3-1-0-----------------------4-3-1-00000000----------|
E|-0-00000000---------00000000-1-00000000-0----------------44444444-|
     ........         ........   ........
e|-------------------------------------|
B|-------------------------------------|
G|-10-10-10-10-10-10-12-12-12-12-12-12-|
D|-x--x--x--x--x--x--x--x--x--x--x--x--|
A|-8--8--8--8--8--8--10-10-10-10-10-10-|
E|-------------------------------------|
  "as long......when worded......" [Both Guitars]
e|----------------------------------------------|
B|----------------------------------------------|
G|----------------------------------------------|
D|-00000000-55555555-88888888-77777777------0~~-|
A|-00000000-55555555-88888888-77777777-[x2]-0~~-|
E|-00000000-55555555-88888888-77777777------0~~-|
(I can't figure out if it goes like that^ or if I
should change the 777's to 555's.  What do you think?)
No guitar until massive breakdown.
e|----------------------------|
B|----------------------------|
G|----------------------------|
D|-00000-00-00-00-00000-00-00-|[x4]
A|-00000-00-00-00-00000-00-00-|
E|-00000-00-00-00-00000-00-00-|
e|-------------------|
B|-------------------|
G|-10-10-10-12-12-12-|
D|-x--x--x--x--x--x--|
A|-8--8--8--10-10-10-|
E|-------------------|
  One guitar does this, I'm not sure what the other one does with it
  Let me know if you know
e|---------------------------------------------------------------|
B|---------------------------------------------------------------|
G|-10-----9------6-------14-------12------14-----15------18------|
D|-x-[x8]-x-[x8]-x-[x16]--x-[x12]--x-[x2]--x-[x2--x-[x8]--x-[x8]-|[x2]
A|-8------7------4-------12-------10------12-----13------16------|
E|---------------------------------------------------------------|
  "when worded correctly......"[Both guitars]
e|------------------------------------------|
B|------------------------------------------|
G|------------------------------------------|
D|-00000000-55555555-88888888-77777777--0~~-|
A|-00000000-55555555-88888888-77777777--0~~-|
E|-00000000-55555555-88888888-77777777--0~~-|
Let me know if the choruses end in 7 or 5,  That's
the part i'm most unsure about.

Elephants Tab by Them Crooked Vultures

Them Crooked Vultures - Elephants
Tabbed By: Mark DiFranco
Tuning - E A D G B e
Intro Part 1:
e|--------------------------------------------------------------------|
B|---------------------1-3--------------------1-3---------------------| x2
G|-------------------3----------------------3-------------------------| slow
D|---------2p0--3p0---------------2p0--3p0----------------------------| x4
A|------1-----1----1-----------1-----1----1---------------------------| fast
E|---3---3------------------3---3-------------------------------------|
Intro Part 2:
e|--------------------------------------------------------------------|
B|--------------------------------------------------------------------|
G|------------0-0--------------------0-0-------0-0-------0-0----------|
D|-------3p0--0-0---------------3p0--0-0-------0-0-------0-0----------|
A|----1h3---3-----3p1--------1h3---3-----3p1-------3p1-------3p1------|
E|--3-----------------3--3-3-----------------3---------3---------3----|
e|--------------------------------------------------------------------|
B|--------------------------------------------------------------------|
G|--0-0x--0-0x--0x--0x--0x--0x----------------------------------------|
D|--0-0x--0-0x--0x--0x--0x--0x----------------------------------------| x2
A|--------------------------------------------------------------------|
E|--------------------------------------------------------------------|
Intro Part 3:
e|--------------------------------------------------------------------|
B|---------------------1-3--------------------1-3---------------------|
G|-------------------3----------------------3-------------------------|
D|---------2p0--3p0---------------2p0--3p0----------------------------| x2
A|------1-----1----1-----------1-----1----1---------------------------|
E|---3---3------------------3---3-------------------------------------|
e|--------------------------------------------------------------------|
B|-----------3/----------3/----------3/----------3/-------------------|
G|-------3-5---------3-5---------3-5---------3-5----------------------|
D|--------------------------------------------------------------------| x1
A|--------------------------------------------------------------------|
E|---3-3---------3-3---------3-3---------3-3--------------------------|
Main Riff:
e|--------------------------------------------------------------------|
B|---3--6--8--11b-3--6--8--11b-3--6--8--11b--3-6-8--6-6/8-8\6-6\3-3~--|
G|---x--x--x--x---x--x--x--x---x--x--x--x----x-x-x--------------------|
D|---0--0--0--0---0--0--0--0---0--0--0--0----0-0-0--------------------|
A|--------------------------------------------------------------------|
E|--------------------------------------------------------------------|
e|--------------------------------------------------------------------|
B|-------------------------6-6/8-8\6-6\3-3~-3//11-11~-----------------|
G|---3/7-7\6-6\3-3~---------------------------------------------------|
D|--------------------------------------------------------------------| x2
A|--------------------------------------------------------------------|
E|-------------------------[2nd time]---------------------------------|
Main Riff 2:
e|--------------------------------------------------------------------|
B|----------------------------------------6--6h8p6--------------------|
G|-------------------------------------6h7--------7--7\6--6\3/6-etc---|
D|---5--8--10-8--5--8--10-8--5--8--10---------------------------------|
A|---5--8--10-8--5--8--10-8--5--8--10---------------------------------|
E|---3--6--8--6--3--6--8--6--3--6--8----------------------------------|
Chorus:
e|--------------------------------------------------------------------|
B|---5--5--5-5--5--5-5--5--5--5-5-------------------------------------|
G|---5--5--5-5--5--5-5--5--5--5-5-------------------------------------|
D|---x--x--x-x--x--x-x--x--x--x-x-------------------------------------|
A|---3--3--3-3--3--3-3--3--3--3-3---5-7-8-7-7/10-7~-------------------|
E|--------------------------------------------------------------------|
e|--------------------------------------------------------------------|
B|--------------------------------------------------------------------|
G|--------------------------------------------------------------------|
D|---7~ 7-7-5/7-7--8--7--5--------------------------------------------| x2
A|--------------------------8--5-7-8-7-7/10-7~------------------------|
E|--------------------------------------------------------------------|
e|--------------------------------------------------------------------|
B|---5~--5--5-5--5-x--3~--3--3-3--3--3--------------------------------|
G|---5~--5--5-5--5-x--3~--3--3-3--3--3--------------------------------|
D|---x~--x--x-x--x-x--x~--x--x-x--x--x--7--8\7--8\7-------------------|
A|---3~--3--3-3--3-x--1~--1--1-1--1--1--7--8\7--8\7-------------------|
E|--------------------------------------5--6\5--6\5-------------------|
Outro:
e|--------------------------------------------------------------------|
B|-3--6--8--11b-3--6--8--11b-3--6--8--11b--3-6-8-6---------------1-3--|
G|-x--x--x--x---x--x--x--x---x--x--x--x----x-x-x-x--------------3-----| x1
D|-0--0--0--0---0--0--0--0---0--0--0--0----0-0-0-0-----2p0--3p0-------| slow
A|---------------------------------------------------1----1----1------|
E|-------------------------------------------------3--3---------------|
Then fast like the intro

Like We Used To Chords – A Rocket To The Moon

intro Bb Gm Eb Eb
Bb               F               Eb
I could feel her breath as she’s sleeping next to me
Bb      F            Eb
Sharing pillows and cold feet
Bb              F            Eb
She can feel my heart; fell asleep to its beat
Bb       F              Eb
Under blankets and warm sheets
Cm              Bb             F
If only I could be in that bed again
Cm              Bb            F
If only it were me instead of him
Chorus:
        Bb
Does he watch your favorite movies?
        Gm
Does he hold you when you cry?
        Eb
Does he let you tell him all your favorite parts?
            Eb
When you’ve seen it a million times
        Bb
Does he sing to all your music?
          Gm
While you dance to purple rain
           Eb
Does he do all these things?
Like I used to?
Bb Gm Eb Eb
Bb    F         Eb
14 months and 7 days ago,
     Bb                   F               Eb
Oh I know you know how we felt about that night
Bb        F                Eb
Just your skin against the window
Bb             F                Eb
But we took it slow and we both know
Cm              F              Bb
It shoulda been me inside that car
Cm                 F             Bb
It should have been me instead of him in the dark
Chorus
(same chords)
I know that love happens all the time, love
(I’m a sucker for that feeling)
You’re on my mind, love
(I always end up feeling cheated)
And that happens all the time, love
(Oh darling, I know I’m not needed)
Will he love you like I loved you?
Will he tell you everyday?
Will he make you feel like your invincible
With every word he’ll say
Can you promise me that this was right?
Don’t throw it all away
Can you do all these things?
Will you do all these things?
Like we used to
Oh like we used to

Almost Lover Tab by A Fine Frenzy

okay so i'm tabbing this song in the drop D version that i made. i don't think a
drop D version has ever been made before? but it sounds pretty good so yeahhh check it out.
The chords used in the song are in chromatic order:
  Am   B5?  C     Dm   Em   F    G
|-----------------5-----------------|
|-10---12---13----3----5----6----8--|
|-9----11---12----2----4----5----7--|
|-7----9----10----0----2----3----5--|
|-7----9----10----0----2----3----5--|
|-7----9----10----0----2----3----5--|
INTRO:
okay so now i know this isn't the exact piano part, but it sounds kinda like it but it's
cool too.
|-------------------------------------|
|-5-----------------------------------|
|---2---2---4---5---5-5---------------| x2
|-----2---2---2---2-----7---7---7---7-|
|-------------------------8---8---8---|
|-------------------------------------|
VERSE 1:
Okay so I just tabbed out the lyrics and some piano with a clean tone. quite beautiful.
|-------------------------|
|-17-15-------17-15-------|
|-------17-14-------17-14-|
|-------------------------|
|-------------------------|
|-------------------------|
|-------------------------|
|-17-15----15----15-------|
|-------17----17----14-17-|
|-------------------------|
|-------------------------|
|-------------------------|
  Images.....  (piano)
|--------------------------|
|-17-15--------5-5---------|
|-------17-14------7---7---|
|--------------------8---8-|
|--------------------------|
|--------------------------|
           Am
Your fingertips across my skin
               F
The palm trees swaying in the wind
   Am            F
Images
|-------------------------|
|-17-15-------17-15-------|
|-------17-14-------17-14-|
|-------------------------|
|-------------------------|
|-------------------------|
|-------------------------|
|-17-15----15----15-17----|
|-------17----17-------17-|
|-------------------------|
|-------------------------|
|-------------------------|
  Clever trick (piano)
|--------------------------|
|-17-15--------5-5---------|
|-------17-14~-----7---7---|
|--------------------8---8-|
|--------------------------|
|--------------------------|
             Am
You sang me Spanish lullabies
             F
The sweetest sadness in your eyes
         Am          F
Clever trick
PRECHORUS:
|--------------------------15~-----------|
|----15~-17~-15-17~-15-17~-----17-17-17~-|
|-17-------------------------------------|
|----------------------------------------|
|----------------------------------------|
|----------------------------------------|
|----------------------------|
|-----15----15----15~--------|
|-17~----17----17-----14-12~-|
|----------------------------|
|----------------------------|
|----------------------------|
       G                       C
Well I never want to see you unhappy
  Dm                                 G
I thought you'd want the same for me
CHORUS:
|-------------------------|
|-17-17-15----------------|
|----------17-17-12-14-17-|
|-------------------------|
|-------------------------|
|-------------------------|
|-----------15----------|
|-17-15~-15----17-15----|
|--------------------17-|
|-----------------------|
|-----------------------|
|-----------------------|
|----------------------------|
|-15-17-15----------15-------|
|----------17-14-17----17-14-|
|----------------------------|
|----------------------------|
|----------------------------|
|----------------------------|
|----15-------15----17-15----|
|-17----17-17----17-------17-|
|----------------------------|
|----------------------------|
|----------------------------|
|-------------------------|
|-17-17-15----------------|
|----------17-17-12-14-17-|
|-------------------------|
|-------------------------|
|-------------------------|
|-----------15----------|
|-17-15~-15----17-15----|
|--------------------17-|
|-----------------------|
|-----------------------|
|-----------------------|
|----------------------------|
|-15-15-17-15-------15-------|
|-------------17-17----17-14-|
|----------------------------|
|----------------------------|
|----------------------------|
|-----------------------------------|
|-----15----15~----15-----17-15-----|
|-17~----17-----17----17~-------17~-|
|-----------------------------------|
|-----------------------------------|
|-----------------------------------|
C
Goodbye, my almost lover
G
Goodbye, my hopeless dream
Dm
I'm trying not to think about you
F
Can't you just let me be?
C
So long, my luckless romance
G
My back is turned on you
Dm
I should've known you'd bring me heartache
F                    C
Almost lovers always do
VERSE 2:
|-------------------------|
|-17-15-------17-15-------|
|-------17-14-------17-14-|
|-------------------------|
|-------------------------|
|-------------------------|
|----------------------------|
|-17-15----15-15-16p15-------|
|-------17-------------17-17-|
|----------------------------|
|----------------------------|
|----------------------------|
|---------------------------------------------------------------|
|-17~-17-17-15----15--------------------------------------------|
|--------------17----17-16-17-16~-14-16-17-14~-16-17-14~-16-17~-|
|---------------------------------------------------------------|
|---------------------------------------------------------------|
|---------------------------------------------------------------|
           Am
We walked along a crowded street
            F
You took my hand and danced with me
   Am            F
Images
|----------------------------|
|----17-15-------17-15-------|
|-17-------17-14-------17-14-|
|----------------------------|
|----------------------------|
|----------------------------|
|----15-15-15----17-15-15----17-15-------------15~----------|
|-------------17----------17-------17-15-17-17-----17-15-17-|
|-14--------------------------------------------------------|
|-----------------------------------------------------------|
|-----------------------------------------------------------|
|-----------------------------------------------------------|
  No...
|-20-19-17-19-17-15~-|
|--------------------|
|--------------------|
|--------------------|
|--------------------|
|--------------------|
             Am
And when you left you kissed my lips
                      F                         Am
You told me you would never ever forget these images
      F
No...
PRECHORUS:
|--------------------------15~-----------|
|----15~-17~-15-17~-15-17~-----17-17-17~-|
|-17-------------------------------------|
|----------------------------------------|
|----------------------------------------|
|----------------------------------------|
|------------------------15----------------|
|-----15----15----15~-15----17h18p17-15h17-|
|-17~----17----17--------------------------|
|------------------------------------------|
|------------------------------------------|
|------------------------------------------|
     G                         C
Well I never want to see you unhappy
  Dm                              G
I thought you'd want the same for me
CHORUS:
|-------------------------|
|-17-17-15----------------|
|----------17-17-12-14-17-|
|-------------------------|
|-------------------------|
|-------------------------|
|--------------15----------|
|-17-15-----------17-15----|
|-------17~-17----------17-|
|--------------------------|
|--------------------------|
|--------------------------|
|-----------------------------|
|-15-17~-15----------15-------|
|-----------17-14-17----17-14-|
|-----------------------------|
|-----------------------------|
|-----------------------------|
|-----------------------------|
|-----15-------15----17-15----|
|-17~----17-17----17-------17-|
|-----------------------------|
|-----------------------------|
|-----------------------------|
|----------------------------|
|-17-17-15-------------------|
|----------17-17-12-14-17-14-|
|----------------------------|
|----------------------------|
|----------------------------|
|-----------15-----------|
|-17-15~-15----17-15-----|
|--------------------17~-|
|------------------------|
|------------------------|
|------------------------|
|----------------------------|
|-15-15-17-15-------15-------|
|-------------17-17----17-14-|
|----------------------------|
|----------------------------|
|----------------------------|
|-----------------------------------|
|-----15----15~----15-----17-15-----|
|-17~----17-----17----17~-------17~-|
|-----------------------------------|
|-----------------------------------|
|-----------------------------------|
C
Goodbye, my almost lover
G
Goodbye, my hopeless dream
Dm
I'm trying not to think about you
F
Can't you just let me be?
C
So long, my luckless romance
G
My back is turned on you
Dm
I should've known you'd bring me heartache
F                    C      C  B5
Almost lovers always do
BRIDGE:
not sure if this is correct but play around with it.
|-15-17-17-17p15-17-17-15-17-15-|
|-------------------------------|
|-------------------------------|
|-------------------------------|
|-------------------------------|
|-------------------------------|
|----15-15-15-------------15b17-|
|-17----------15-17-17p15-------|
|-------------------------------|
|-------------------------------|
|-------------------------------|
|-------------------------------|
|-15-17-17-17p15-17-17-15-17-15-|
|-------------------------------|
|-------------------------------|
|-------------------------------|
|-------------------------------|
|-------------------------------|
|-15-15~-15-------------|
|-----------17-17-15b17-|
|-----------------------|
|-----------------------|
|-----------------------|
|-----------------------|
|-17-17~-17p15-17-17p15-17-15-|
|-----------------------------|
|-----------------------------|
|-----------------------------|
|-----------------------------|
|-----------------------------|
|----15-15----15-15-20~-------|
|-17-------17-----------------|
|-----------------------17-14-|
|-----------------------------|
|-----------------------------|
|-----------------------------|
|--------------------------------------------------15--------------|
|----17~-15-------17-15~----15-15-15-17-15~----15~----17-18p17-15~-|
|-14--------17-14--------17-----------------17---------------------|
|------------------------------------------------------------------|
|------------------------------------------------------------------|
|------------------------------------------------------------------|
Am                   G
I cannot go to the ocean
                              F
I cannot drive the streets at night
                           Em
I cannot wake up in the morning
                        Am
Without you on my mind
                           G
So you're gone and I'm haunted
                       F
And I bet you are just fine
                      Dm
Did I make it that easy
                               G
To walk right in and out of my life?
CHORUS:
|--------------------------|
|-17-17-15-----------------|
|-----------17-17-12-14-17-|
|--------------------------|
|--------------------------|
|--------------------------|
|-----------15-----------|
|-17-15~-15----17-15-----|
|--------------------17~-|
|------------------------|
|------------------------|
|------------------------|
|----------------------------|
|-15-17-15----------15----15-|
|----------17-14-17----17----|
|----------------------------|
|----------------------------|
|----------------------------|
|-------------15-17-15~-|
|-----------------------|
|-17-14-17-17-----------|
|-----------------------|
|-----------------------|
|-----------------------|
|----------------------------|
|-17-17-15-------------------|
|----------17-17-12-14-17-14-|
|----------------------------|
|----------------------------|
|----------------------------|
|-----------15-17-15-17-15-|
|-17-15~-15----------------|
|--------------------------|
|--------------------------|
|--------------------------|
|--------------------------|
|----------------------------|
|-15-15-17-15-------15-------|
|-------------17-17----17-14-|
|----------------------------|
|----------------------------|
|----------------------------|
|-------------------------------------------|
|-----15----15~----15-----17~-15----15------|
|-17~----17-----17----17~--------17----17~~-|
|-------------------------------------------|
|-------------------------------------------|
|-------------------------------------------|
C
Goodbye, my almost lover
G
Goodbye, my hopeless dream
Dm
I'm trying not to think about you
F
Can't you just let me be?
C
So long, my luckless romance
G
My back is turned on you
Dm
I should've known you'd bring me heartache
F
Almost lovers always...
C
Do

God And Satan Chords – Biffy Clyro

Nice Song, Complicated timing in the bridge at the end.
Intro
 G Em G Em
G                       Em                      G                    C
I talk to god as much as I talk to satan 'cause I want to hear both sides
C
does that make me cynical
G
there are no miracles
Em
this is no miraculous life
G                       Em
I savor hate as much as i crave love
        G                  C
because I'm just a twisted guy
C                     G                     Em
is this the pinnacle, is this the pinnacle, the pinnacle of being alive?
G     C       D
now i see the light
C                                             G                  D
well i look up to god an i see trouble 'cause this aint a miracle
C                                G                    D
i just want to take my chance to live through a miracle
G   Em
ooah
G   Em
ooah
G                       Em                       G                C
I know for certain that some one is watching but is it from up or down
C                    G                              Em
I make you miserable you stick with me although you know I'm gonna ruin your life
G                       Em                      G                    C
I talk to god as much as I talk to satan 'cause I want to hear both sides
C
does that make me cynical
G
there are no miracles
Em
this is no miraculous life
G         C        D
We walk into the tide
C                                             G                  D
well i look up to god an i see trouble 'cause this aint a miracle
C                                G                    D
i just want to take my chance to live through a miracle
C                                             G                   D
When the seesaw snaps and splinters your hand dont come crying to me
D                         C
I'll only see your good side
C                      Em
and believe its a miracle
D
a miracle
Em               F#    G
I slap the water and watch
C                       G        D
the fish dance to the ripples of us
Em              F#   G
were just stubborn duds
C              G           D
blinking eyes encased in rust
Em              G
this aint a miracle
C               D
this aint a miracle
Em              G
this aint a miracle
C               D
this aint a miracle
G  Em
ooah
G  C ......
ooah
*End*
Page 19,638 of 19,640« First...102030...19,63619,63719,63819,63919,640