Category: Chords


Game chords – Miriam Bryant

 -------------------------------------------------------------------------------
                             Game - Miriam Bryant
-------------------------------------------------------------------------------
: LillaMartin
 RasmusSture@hotmail.se
Tuning: Standard No Capo
So I wrote the lyrics myself so apologize in advance for any mistakes.
Wanna play it in easier chords is to tune the guitar down ½ step.
Then you get G Am Em C. Or capo on 6th fret it's C Dm Am F.
Good luck!
[Intro]
 F# G#m D#m B
[Verse]
 F#
They wouldn't please you
       G#m
Don't know what I've seen
               D#m B
And they're expecting me to succeed
 F# G#m
Not gonna lie, the sun's been up for a while
        D#m B
But something still brings me pain
(Don't play no game with me)
 F# G#m D#m B F# G#m
Follow my lead, when you're looking at me
          D#m B
I know exactly what you see
        F#
Never try to pretend
        G#m
wanna stay to the end
             D#m B
I wear my heart on the outside
(So check the other side)
 F# G#m D#m B
[Chorus]
 F# G#m
I am on my way heading up up up
       D#m B
There is no other way but up up up
 F# G#m
away away away away
 D#m B
away away away
         F# G#m
Play no game game game game game
         D#m B
Play no game game game game game
         F# G#m
Play no game game game game game
      D#m
Play no
      B
Play no
         F#
Play no
[Verse]
 F# G#m
Don't be a fake, please give me a break
      D#m B
Be clever, make no mistake
 F# G#m
Don't say hello, I wanna see you go
           D#m B
I'll be sitting in front row
(Don't play no game with me)
 F# G#m D#m B
[Chorus]
 F# G#m
I am on my way heading up up up
       D#m B
There is no other way but up up up
 F# G#m
away away away away
 D#m B
away away away
         F# G#m
Play no game game game game game
         D#m B
Play no game game game game game
         F# G#m
Play no game game game game game
      D#m
Play no
      B
Play no
         F#
Play no
 F# G#m D#m B
Play no
 F# G#m D#m B
So play no game with me
 F# G#m D#m B
[Bridge]
 F# G#m D#m
I got no pokerface
                         B
All I have is what you see so
 F# G#m D#m
I got no pokerface
                         B
All I have is what you see so
[Chorus]
         F# G#m
Play no game game game game game
         D#m B
Play no game game game game game
         F# G#m
Play no game game game game game
      D#m
Play no
      B
Play no
         F#
Play no
 F# G#m D#m B
Play no
 <sp

You Were Here chords – Sarah Harmer

 Verse            Chorus
------------     ---------
 C      x32010      G   320033
 D/F#   2x0232      C   x32010
                  D   xx0232
[Intro]
    C D/F# C D/F#
e|--------------|-----------------|
B|--------------|-----------------|
G|--------------|--------0--------|
D|-----0--------|-----------------| x2
A|--3-----------|--0--3-----------|
E|--------3--2--|-----------3--2--|
[Verse 1]
 C D/F# C D/F#
Are there no blinders on lights that blare
       C D/F# C D/F#
White noise on the eyes
      C D/F# C D/F#
From gas station lots and reflected ice -- glare
         C D/F# C D/F#
So that I can walk home by moonlight -- alone
 C D/F# C D/F#
[Verse 2]
    C D/F# C D/F#
Or can we go out to where the wind howls
     C D/F# C D/F#
And stand alee against the trees
         C D/F# C D/F#
They've grown up so tall that you can't see the house
         C D/F# C D/F# G
It's a fortress now but you know how it used to be
[Chorus 1]
 G C D G C D
  I can lie to myself and say I like it
 G C D C D/F#
  But I would love it if you were here
 C D/F# C D/F# C D/F#
[Verse 3]
       C D/F# C D/F#
These words on paper smell like you
   C D/F# C D/F#
Associated in random thought
 C D/F# C D/F#
On my lips the words turn blue
 C D/F# C D/F# G
Evanescent feeling lost
[Chorus 2]
 G C D G C D
  I can lie to myself and say I like it
 G C D G C D
  But I would love it if you were here
 G C D G C D
  I'm just sad for myself because I know you're clear
 G C D C D/F#
  But I would love it if you were here
 C D/F# C D/F# C D/F#
[Verse 4]
 C D/F C D/F#
I can just see you show me your gardens
   C D/F# C D/F#
I thought you'd grow roses and grapes on low vines
   C D/F# C D/F#
I wanted to know you when we were both older
   C D/F# C D/F# G
I thought there'd be more of those wonderful times
[Chorus 3]
 G C D G C D
  I can lie to myself and say I like it
 G C D G C D
  But I would love it if you were here
 G C D G C D
  I'm just sad for myself because I know you're clear
 G C D C D/F#
  B

Le Gorille chords – Georges Brassens Vsion 2

 [VERSE]
          D A7
C'est à travers de larges grilles que les femelles du canton
                                                              D
Contemplaient un puissant gorille sans souci du qu'en-dira-t-on
                                                          A7
Avec impudeur ces commères lorgnaient même un endroit précis
                                                   D
Que rigoureusement ma mère m'a défendu d'nommer ici
[CHORUS]
            D A7 D A7 D
Gare au gori-------lle
[VERSE]
                                                      A7
Tout à coup la prison bien close où vivait le bel animal
                                                                 D
S'ouvre on n'sait pourquoi je suppose qu'on avait du la fermer mal
                                                                A7
Le singe en sortant de sa cage dit c'est aujourd'hui que j'le perds
                                                   D
Il parlait de son pucelage vous aviez deviné j'espère
[CHORUS]
            D A7 D A7 D
Gare au gori-------lle
[VERSE]
                                                A7
L'patron de la ménagerie criait éperdu nom de nom
                                                        D
C'est assommant car le gorille n'a jamais connu de guenon
                                                         A7
Dès que la féminine engeance sut que le singe était puceau
                                                            D
Au lieu de profiter de la chance elle fit feu des deux fuseaux
[CHORUS]
            D A7 D A7 D
Gare au gori-------lle
[VERSE]
                                                       A7
Celles là même qui naguère le couvaient d'un oeil décidé
                                                                  D
Fuirent prouvant qu'ell's n'avaient guère de la suite dans les idées
                                                                A7
D'autant plus vaine était leur crainte que le gorille est un luron
                                                                D
Supérieur à l'homme dans l'étreinte bien des femmes vous le diront
[CHORUS]
            D A7 D A7 D
Gare au gori-------lle
[VERSE]
                                                        A7
Tout le monde se précipite hors d'atteinte du singe en rut
                                                      D
Sauf une vielle décrépite et un jeune juge en bois brut
                                                    A7
Voyant que toutes se dérobent le quadrumane accéléra
                                                         D
Son dandinement vers les robes de la vielle et du magistrat
[CHORUS]
            D A7 D A7 D
Gare au gori-------lle
[VERSE]
                                                         A7
Bah  soupirait la centenaire qu'on puisse encore me désirer
                                                   D
Ce serait extraordinaire et pour tout dire inespéré
                                                         A7
Le juge pensait impassible qu'on me prenne pour une guenon
                                                        D
C'est complètement impossible la suite lui prouva que non
[CHORUS]
            D A7 D A7 D
Gare au gori-------lle
[VERSE]
            

Le Sésame Pour Les Cieux chords – Scotch & Sofa

 Le Sésame Pour Les Cieux
Scotch, Sofa
[Intro]
 Dm Dm Bb A  X2
[Verse 1]
 Dm Dm Bb A
J'ai voyagé dans l'aigue-marine, dans la turquoise de ses yeux Hummm
 Dm Dm Bb A
Et dans son regard d'ondine, j'ai vu le sésame pour les cieux Hummm
 Bb C Dm
J'ai goûté les rouges vermeils qui fardaient ses baisers de feu
 Bb C Dm
Et sur sa bouche de groseille, j'ai vu le sésame pour les cieux
[Chorus]
 Dm Dm Bb A
Tum Tao Tum tum tum Tao Tum tum tum    tum
 Dm Dm Bb A
Tum Tao Tum tum tum Tao Tum tum tum    tum
[Verse 2]
 Dm Dm Bb A
J'ai tressé des serments d'automne dans blé fauve de ses cheveux Hummm
 Dm Dm Bb A
Et sans ses boucles d'ocre jaune, j'ai vu le sésame pour les cieux Hummm
 Bb C Dm
J'ai bu le lait de sa peau nue, goûté à l'ivoire délicieux
 Bb C Dm
Et sur ses hanches de statue, j'ai vu le sésame pour les cieux
 Dm Dm Bb A
Je l'ai parcouru arc-en-ciel, par grand soleil ou temps pluvieux  Hummm
 Dm Dm Bb A
Toujours ardent, jamais pastel, je me suis approché des cieux  Hummm
 Bb C Dm
Je me suis approché des cieux
 Bb C Dm
Toutes ces couleurs mènent à Dieu
[Chorus]
 Dm Dm Bb A
Tum Tao Tum tum tum Tao Tum tum tum    tum
 Dm Dm Bb A
Tum Tao Tum tum tum Tao Tum tum tum    tum

Sariyaagi Nenapide Nange chords – Armaan Malik

 [Chorus]
 Em D
Sariyagi nenapide nanage
 G C
Idakella kaarana kirunageye
[Verse 1]
 G D
Manadaa prathi galliyolagu
 G D
Ninnade meravanige
 Am Bm
Kanasinaa kulumege
 Am Bm
Usiranuu oodutha
 C Em
Kidi haruvudu innu kachita
[Instrumental]
 Em D C D Em D C B Em
[Chorus]
 Em D
Sariyagi nenapide nanage
 G C
Idakella kaarana kirunageye
[Verse 2]
 Em D
Kannalle ive yella kagadaa
 G A
Neene nannaya anche pettige
 Em D
Yene kandaru neene jnapaka
 G Am
Neene aushadi nanna hucchige
 A Bm
Teredu neenu muddada adhyaya
 A Am
Sigade idre tumbane anyaaya
 Em D Am G
Nannaya nade nudi ninnane bayasutha
 Em C
Badalaaguvudu innu kachita
[Chorus]
 Em D
Sariyagi nenapide nanage
 G C
Idakella kaarana kirunageye
[Verse 3]
 Em D
Ninna nruthyake siddavagide
 G A
Antharangada rangasajjike
 Em D
Ninna nodada nanna jeevana
 G Am
Suddi illada suddipathrike
 A Bm
Sere sikkaga bekilla jaaminu
 A Am
Sarasakkiga nindene kaanonu
 Em D
Koreyuva nenapali
 Am G
irulanu kaleyuta
 C Em
Belegaaguvudu innu kachitha
[Chorus]
 Emin D
Sariyagi nenapide nanage
 G C
Idakella kaarana kirunageye

Agnus Dei chords – Michael W. Smith Vsion 8

 [Intro]
 G Gsus G D C Gsus2 Em7 Dsus D
[Verse 1]
 G C G D G C D C
Alleluia, - Allelu - ia
         D C G Am G Am
For our Lord God Almighty reigns
 G C G D G C D C
Alleluia, - Allelu - ia
         D C G Am G Am
For our Lord God Almighty reigns
 G Am7 G/B C D C/E
A  -  le  -  lu  -  ia
[Chorus]
   D/F# G D/F# G
Ho  -  ly, Ho - ly
         C G Em Dsus D
Are You Lord God Almighty
 Am G/B C
Worthy is the Lamb
 Am G/B C
Worthy is the Lamb
        C/E D/F# G
You are Ho  -  ly
 D/F# G C G Em Dsus D
Ho - ly are You Lord God Almighty
 Am G/B C
Worthy is the Lamb
 Am G/B C
Worthy is the Lamb
   D G Am G Am
A - men
[Verse 2]
 G C G D G C D C
Alleluia, - Allelu - ia
         D C G Am G Am
For our Lord God Almighty reigns
 G C G D G C D C
Alleluia, - Allelu - ia
         D C G Am G Am
For our Lord God Almighty reigns
 G Am7 G/B C D C/E
A  -  le  -  lu  -  ia
[Chorus]
   D/F# G D/F# G
Ho  -  ly, Ho - ly
         C G Em Dsus D
Are You Lord God Almighty
 Am G/B C
Worthy is the Lamb
 Am G/B C
Worthy is the Lamb
        C/E D/F# G
You are Ho  -  ly
 D/F# G C G Em Dsus D
Ho - ly are You Lord God Almighty
 Am G/B C
Worthy is the Lamb
 Am G/B C
Worthy is the Lamb
        C/E D/F# G
You are Ho  -  ly
 D/F# G C G Em Dsus D
Ho - ly are You Lord God Almighty
 Am G/B C
Worthy is the Lamb
 Am G/B C
Worthy is the Lamb
   D G
A - men

Im Walkin Here chords – Rab Noakes

 Rab Noakes - I'm Walkin' Here
CAPO: 4th Fret
[INTRO:]  D Am G D A6 D Am G D A6
[VERSE 1:]
 D Am
Hey, I'm walkin' here
 G
What are doing in my space
      D A6
It's not your place, get outta my face
[VERSE 2:]
     D Am
And hey, I'm talkin' here
 G
All your time, don't wind me up
     D A6
You think it's okay to interrupt
[BRIDGE:]
      C G D
Well, the sippers think I'm just a straw in the wind
   C G A
A child's toy or someone else's stray____
[VERSE 3:]
 D Am
Hey, I'm talkin' here
     G
But I can't think
 A6 D
I can't hear a thing
[INSTRUMENTAL:]  D Am G D A6 D Am G D A6
[BRIDGE:]
 C G D
Write in a notebook, feel like a cork on the ocean
 C G A
Take it, don't leave me hanging on a shelf
[VERSE 4:]
 D Am
Hey, I'm walkin' here
       G A
I can make this journey by myself
   G A G
I don't need what you think is help
               A D C D G D
Go and try to mess with someone else_______

Bread For The Body chords – Kris Kristofferson

 Bread for the Body
Feeling Mortal
[INTRO]
 A G  x3
 A
[VERSE]
    A G A
I built my own chains in the land of the free
                              B E
A slave to a job that meant nothing to me
              A G A
With three shiny new cars and a split level home
                            G A
To furnish the tomb I was dying to own
      D
Then one day I wakened with fear in my eye
   A E
Aware of a world that was passing me by
         A G A
And I knew that my savings of silver and gold
                                 G A
Would mean not a thing when my body was cold
[CHORUS]
          A D A
Because life is a song for the dying to sing
                              B E
It's got to have feeling to mean anything
        A D A
And a man can get by without silver or gold
                              G A
With bread for the body and song for the soul
[INTERLUDE]
 A G  x3
[VERSE]
      A G A
I'm living my life by the lessons I've learned
                               B E
And not looking back at the bridges I've burned
             A G A
'Cause the time that we travel from cradle to grave
                                 G A
Was meant to be spent and not meant to be saved
         D
And I know there are some who will say I'm a fool
        A E
But I don't give a damn for the people that do
            A G A
'Cause if down in a dungeon is where they belong
                                    G A
Well, that's their misfortune and none of my own
[CHORUS]
          A D A
Because life is a song for the dying to sing
                              B E
It's got to have feeling to mean anything
        A D A
And a man can get by without silver or gold
                              G A
With bread for the body and song for the soul
[OUTRO]
 A G  x7
 A

Tube Of Wonderful Tabs – Soul Asylum

  From the Chasing Amy (1997) soundtrack
 Originally written and recorded by Dave Pirner
 Transcription by Dave Musgrave (bentbullets)
e||   ||--------------------|--------------------|--------------------|--------------------|
b||   ||------6---9---------|------6---9---------|------6---9---------|------6---9---------|
G|| 5 ||6h8-x-------6---8---|6h8-x-------6---8---|6h8-x-------6---8---|6h8-x-------6---8---|
D|| 4 ||--------------------|--------------------|--------------------|--------------------|
A||   ||--------------------|--------------------|--------------------|--------------------|
E||   ||--------------------|--------------------|--------------------|--------------------|
 ||     6-string Banjo
 ||
 ||
G||   ||--------------------|--------------------|--------------------|--------------------|
D|| 5 ||--------------------|--------------------|--------------------|--------------------|
A|| 4 ||--------------------|--------------------|--------------------|--------------------|
E||   ||--------------------|--------------------|--------------------|--------------------|
        Tuba, arranged for Upright Bass, pizzicato
e|6---------4---------|--------------------|6---------4---------|--------------------||
b|--9---6-----7---4---|7p6-------6p4-------|--9---6-----7---4---|7p6-------6p4-------||
G|--------------------|------6---------6---|--------------------|------6---------6---||
D|--------------------|--------------------|--------------------|--------------------||
A|--------------------|--------------------|--------------------|--------------------||
E|--------------------|--------------------|--------------------|--------------------||
 |
 |
 |
G|--------------------|--------------------|--------------------|--------------------||
D|3---------6-4-------|4-3-------3---------|3---------6-4-------|4-3-------3---------||
A|--6---3---------6---|------4-----6---4---|--6---3---------6---|------4-----6---4---||
E|--------------------|--------------------|--------------------|--------------------||
* Note - I have not submitted the structure of the song, as these are the only two riffs
 played throughout the song (with some minor similes).
************************************
| x   Dead note
| g   Grace note
| (n) Ghost note
| h   Hammer-on
| p   Pull-off
| r   Release
| >   Accented note
| t   Tapping
| b   Bend
| br  Bend release
| pb  Pre-bend
| pbr Pre-bend release
| /   Slide up
| \   Slide down
| ~   Vibrato
| s   Slap
| P   Pop
| PM  Palm mute
| TR  Trill
| N   Tremolo
************************************

Järnspöken Tabs – Kent Vsion 2

 Järnspöken
Capo 8 fret
Jag skriver vilka ackord som ligger i grunden under fingerplockandet
så vet ni hur man håller handen sen är det bara att plocka rätt
sträng och byta vid rätt tillfälle, vilket följer ett mönster som ni
kommer märka. jag brukar även plocka basnoten vid byte av ackord men
det verkar dem inte göra i studioversionen så jag lämnar det ute, men
testa det gärna!
Csus4   X33010                  F       133211
C       X32010                  Em      022000
G       320033                  Am      X02210
[Intro]
e|-----------------------------------------------|
B|----1---1-------------------1---1--------------|
G|------0-------0---0-----------0-----0---0------| x2
D|--3-------------2---------3-----------2--------|
A|-----------------------------------------------|
E|-----------------------------------------------|
  (Csus4, C,               Csus4, C)
[Verse]
Dom brände grönan och skolan står där...
e|-----------------------------------------------|
B|----1---1-------------------1---1--------------|
G|------0-------0---0-----------0-----0---0------|
D|--3-------------2---------3-----------2--------|
A|-----------------------------------------------|
E|-----------------------------------------------|
  (Csus4, C,               Csus4, C)
ensam nu...
e|-----------------------------------------------|
B|--------0----------------------0---------------|
G|------0-------0---0----------0-------0---0-----|
D|----2-----------2----------2-----------2-------|
A|-----------------------------------------------|
E|--0----------------------0---------------------|
   Em
Cykelställen står tomma än, trots att...
e|-----------------------------------------------|
B|--------1----------------------3---------------|
G|------2-------0---0----------2-------0---0-----|
D|----3-----------2----------2-----------0-------|
A|-------------------------0---------------------|
E|--1--------------------------------------------|
   F,     C,              Am,    G
loven är slut...
e|-----------------------------------------------|
B|--------1--------------------1---1-------------|
G|------2-------0---0------------0-----0---0-----|
D|----3-----------2----------3-----------2-------|
A|-----------------------------------------------|
E|--1--------------------------------------------|
   F,     C,                Csus4, C
[Detta mönster repeteras över all text i verserna,
härnäst kommer då alltså med samma gitarrspelande]:
Dom fäller kastanjeträden i allén framför skolgården
Och jag rör mig tyst hör inte hemma här, jag är vålnaden
Jag vet inte varför, men kanske är det därför jag minns det så väl
Dina stora ögon, dina bruna händer, dina vassa knän
[Refrain]
Var det dig jag såg, som en skugga ur mina
e|-----------------------------------------------|
B|--------1------------------------1-------------|
G|------2-------2---2------------0-----2---2-----|
D|----3-----------3------------0---------2-------|
A|-----------------------------------------------|
E|--1------------------------3-------------------|
    F,                      G,    Am
drömmar
e|-----------------------------------------------|
B|--------1--------------------1---1-------------|
G|------2-------0---0------------0-----0---0-----|
D|----3-----------2----------3-----------2-------|
A|-----------------------------------------------|
E|--1--------------------------------------------|
    F,    C,                Csus4, C
[Detta mönster repeteras under refrängerna]
Var det dig jag såg, dig jag svor att aldrig glömma
[Verse]
Dom brände grönan och skolan står där ensam nu
Cykelställen står tomma än, trots att loven är slut
Dom fäller kastanjeträden i allén framför skolgården
Och jag rör mig tyst hör inte hemma här, jag är vålnaden
Jag vet inte varför, men kanske är det därför jag minns det så väl
Dina stora ögon, dina bruna händer, dina vassa knän
[Refrain]
Var det dig jag såg, som en skugga ur mina drömmar
Var det dig jag såg, dig jag svor att aldrig gl
Page 20 of 19,640« First...10...1819202122...304050...Last »