Category: Chords


Born Again chords – The Afterglows

 Capo One
     G G/B Em Am C Em9
e|---------------------------------------------------------------------------|
B|--------------------1-1-1-1-1-1-1-3-3-3-3-3-3------------------------------|
G|--------------------2-2-2-0-0-0-0-0-0-0-0-0-0------------------------------|
D|--------------2-2-2-2-2-2-2-2-0-2-4-4-4-4-4-4------------------------------|
A|--2-2-2-2-2-2-2-2-2-------3-3-3-3-5-5-5-5-5-5------------------------------|
E|--3-3-3-2-2-2--------------------------------------------------------------|
[Verse 1]
   G G/B Em Am C Em9
I don't believe in ghosts but I've been haunted by your scent.
   G G/B Em Am C Em9
I don't believe that you could say exactly what you meant.
[Chorus]
           Em C Em Em9
There's a tugging on my hand, there's a stain on which you stand.
   G G/B Em Am C G
I don't believe in anything now that you're born again.
   G G/B Em Am C G
I don't believe in anything now that you're born again.
[Verse 2]
 G G/B Em Am C Em9
Like the moon and stars you were out dancing in the sky,
         G G/B Em Am C Em9
but you left the party fast, you never even said goodbye.
[Chorus]
          Em C Em Em9
You felt lonely, dumb, and scared. I felt mad and ill-prepared.
          G G/B Em Am C G
Though I don't believe in you, I've been dreaming of you there.
          G G/B Em Am C G
Though I don't believe in you, I've been dreaming of you there.
[Bridge]
 G G/B Em Am C Em9  2x
[Chorus]
           Em C Em Em9
There's a tugging on my hand, there's a stain on which you stand
       G G/B Em Am C G
and I don't believe in anything now that you're born again.

Do You Ever Dream chords – Delta Rae

 From Delta Rae's upcoming album.
Taken from their live show in Minneapolis:
 
[Verse 1]
              F
Do you ever dream?
                                      Dm
Do you ever see the future when you look at me?
                                                   Bb
A little house in the mountains surrounded by the evergreens,
             Bb
a homemade meal and a couple kids,
                  F
Or is just the moment?
                                                          Dm
Is it the sex and the coffee and the legs that keep you coming back?
                                               Bb
I hate to ruin the romance, baby, but I have to ask.
        Bb C
Is it something I can't see?
[Chorus]
              F
Do you ever dream,
              Dm
do you ever dream,
              Bb C
do you ever dream,
[Verse 2]
              F
Do you ever dream?
                                                    Dm
Or do you wanna live this world while you're still young and free?
                                                Bb
Live on the edge and leave the livin' love to girls like me,
                        Bb
and you'd give me just enough.
                F
But you never call, you never share,
               Dm
you're never wrong and it's not fair.
         Bb C
I had a vision of who I'd be, and baby, I'm not there.
[Chorus]
              F
Do you ever dream,
             Dm
do you ever dream,
             Bb C
do you ever dream,
[Bridge]
             F
Do you ever dream when the nights get lonely
               F
You're gonna wish that I was there
              Dm
Do you ever dream how it's gonna hurt, baby,
              Dm
When there's nobody that cares
            Bb
About the stories that you tell, do you even get that far,
                   C C
'Cause I've been livin' in this moment, and it's all fallin' apart
[Chorus]
              F
Do you ever dream,
              Dm
do you ever dream,
              Bb C
do you ever dream,
              F
Do you ever dream?
[Outro]
 F Dm Bb C Gm F

Ya Hazze chords – Adam

[verse]:
 Em E Dm
 haje t2elle ma btetrekni metlak metl khyali
 Dm G F E
 khyali lamma yshouf el atmi byetrekni lahali
 Em E Dm
 haje t2elle ma btetrekni metlak metl khyali
 Dm G F E
 khyali lamma yshouf el atmi byetrekni lahali
 Dm E Dm E
enta 3andi men hala2 reznamet seni mara2et
 Dm G F E
kammel wahdak mwaffa2 rouhi mn wa hmak te3 bet
[Chorus]
 Am F Dm
ya hazzi msallem la jerhi w basemlou bel aashra
 Am F Dm
ya hazzi eltli haida habibi bas huwi zekra
 G Am G
ya hazzi barem dahrak la albi hatet aynak aa taabi
 F Dm E
farjini wejjak aam yed hak shi marra
 Am F Dm
ya hazzi msallem la jerhi w basemlou bel aashra
 Am F Dm
ya hazzi eltli haida habibi bas huwi zekra
 G Am G
ya hazzi barem dahrak la albi hatet aynak aa taabi
 F Dm E
farjini wejjak aam yed hak shi marra
 F Dm F Am
farjini we jjak aam yed hak shi marra

No Rest For Me chords – Jonathan Johansson Vsion 2

 Easiest to either:
- tune down 1/2-step
- transpose chord shapes up 1/2-step (first chord Bm, C#m7-5/E 022020, C#m7-5/G 32x020)
OR:
- transpose chord shapes down 1/2-step (first chord Am, Bm7-5/D xx0202, Bm7-5/F xx3435 or 120201)
- capo 1.
ORDER: I V1 C1 INT1 V2 C2 INT2 FC O
[INTRO]
 Bbm
[VERSE 1]
    Ebm7 Cm7-5/Eb
My name is a lie and the harvest is fai  -  ling
     Dbmaj7 Bbm
The thought of my mother keeps my father waiting
        Gb Cm7-5/Eb
If the distance of innocence, the distortion of the till
      Dbmaj7 Bbm
If a heartbeat is pounding, then a heartbeat's for sale
[CHORUS 1]
   Abadd4 Gb
If      there's rest by the water,
                        Ab7/Gb
if there's rest by the sea
            Dbmaj7/F
If there's rest    for the mourners
               Bbm    | |
Ain't no rest for me
[INTERLUDE 1]
 Bbm  |             n.c.
   (ain't no rest)
[VERSE 2]
      Gb Cm7-5/Gb
Your name is a lie, you're broken by num  -  bers
    Dbmaj7 Bbm
As flesh and bone be torn, left with the wonders
[CHORUS 2]
           Gb
If there's  rest by the water,
                        Ab7/Gb
if there's rest by the sea
            Dbmaj7/F
If there's rest    for the mourners
               Bbm    | |
Ain't no rest for me
[INTERLUDE 2]
 Ebm7(add11)/Bb  | |  Dbmaj7  | |
 Ebm7(add11)/Bb  | |  Dbmaj7  | |
 Ebm7(add11)/Bb  | | n.c.   | |
[FINAL CHORUS]
               Gb
   If there's rest by the water,
                           Ab7/Gb
   if there's rest by the sea
               Dbmaj7/F
   If there's rest    for the mourners,
                  Bbm
   ain't no rest for me
 Ab Gb
   If there's  rest by the water,
                           Ab7/Gb
   if there's rest by the sea   (rest by the water, rest by the sea)
               Dbmaj7/F
   If there's rest    for the mourners,
                  Bbm    | |
   ain't no rest for me
[OUTRO]
(  Bbm  ) | | | |

Half Past Dead intro Tabs – Billy Talent

 Billy Talent - Half Past Dead  (Intro + Chorus)
[Intro]
e|---------------------------------|
B|------------------------7r-------|
G|-7--7-7-7-7-----------7----------|
D|-6--6-6-6-6-x--------------------|
A|------------x--------------------|
D|------------x-4-5-6-7------------|(x6)
[Chorus]
e|--------------------------------------------------------------------------------------------------------|
B|--------------------------------------------------------------------------------------------------------|
G|--------------------------------------------------------------------------------------------------------|
D|-7-9--7-9-7--9-7-9--9-9--5-7--5-7--5------0-2--2-2--0-2--0-2--0--2--0--5--5-5--5-7--5-7--8-7-5-2--2-2---|
A|-5-7--5-7-5--7-7-9--9-9--5-7--5-7--5------0-2--2-2--0-2--0-2--0--2--0--5--5-5--5-7--5-7--8-7-5-2--2-2---|
D|---------------7-9--9-9--5-7--5-7--5--8\--0-2--2-2--0-2--0-2--0--2--0--5--5-5--5-7--5-7--8-7-5-2--2-2---|
e|-----------------------------------------------------------------------------------------------------------|
B|-----------------------------------------------------------------------------------------------------------|
G|-----------------------------------------------------------------------------------------------------------|
D|-7-9--7-9-7--9-7-9--9-9--5-7--5-7--5------0-2--2-2--0-2--0-2--0--2--0--5--5-5--5-7--5-7--8-7-5-2--2-2--0-2-|
A|-5-7--5-7-5--7-7-9--9-9--5-7--5-7--5------0-2--2-2--0-2--0-2--0--2--0--5--5-5--5-7--5-7--8-7-5-2--2-2--0-2-|
D|---------------7-9--9-9--5-7--5-7--5--8\--0-2--2-2--0-2--0-2--0--2--0--5--5-5--5-7--5-7--8-7-5-2--2-2--0-2-|
************************************
| x  Dead note
| r  Release
| \  Slide down
************************************

Weekend America chords – Go Back To The Zoo

 Play the A and the E on the twelfth fret for the best sound.
[Intro]
 A E A
I was gone for the weekend
But now I'm back
                            E
And I'm right here in your arms
         A
Stay in bed with my girlfriend
Sharing dreams
                        E
Making our hearts beat faster
And I hope that you have
Missed me too
          D
Cause it feels so much better
When you're not alone
        E
Yes it feels so much better
When you're not alone
         D
Oooh it feels so much better
When you're not alone
         E
Yeah it feels so much better
When you're not alone
 D A
Oooooh I really miss you
 D A
Oooooh I really miss you
 D A
Oooooh I really miss you
 D A
Oooooh I really miss you
D (once)
Oooooooooh
"Riff":
e------------------------------------14-14-12-12-14-14-12-12-12-12----14-14-12-12-14-14-14-14-14-12-----------
B-14-14-12-12-14-14-12-12-12-12-(2x)----------------------------------------------------------------14-12-14--
G-------------------------------------------------------------------------------------------------------------
D-------------------------------------------------------------------------------------------------------------
A-------------------------------------------------------------------------------------------------------------
E-------------------------------------------------------------------------------------------------------------
 A
When I'm lost;
When I'm lonely;
When I'm down
                     E
You take me in your arms
I close my eyes
And the world is gone
          D
And they say everybody needs some time alone
        E
But it feels so much better when you're not alone
        D
Yes it feels so much better when you're not alone
          E
Ooooh it feels so much better when you're not alone
D (once)
Oooooooooh I really miss you
 D A
Oooooh I really miss you
 D A
Oooooh I really miss you
 D
I miss you
 A
I miss you
 D
I miss you
 A
I miss you
Just strum the A on the 12th fret for the ending

Bluest Heartache chords – Ricky Skaggs

 [Chorus]
 A D
Bluest heartache of the year;
 E A E
Lonesome memories I can't bare.
 A D Bm
I still love you, but I know you don't care.
              A E A
I've got the bluest heartache of the year.
[Verse 1]
 A E
You looked so pretty out there on the floor,
                                           A
Dancing with him while I watched from the door.
                         D Bm
He held you closer than I've ever dared.
              A E A
I've got the bluest heartache of the year.
[Chorus]
 A D
Bluest heartache of the year;
 E A E
Lonesome memories I can't bare.
 A D Bm
I still love you, but I know you don't care.
              A E A
I've got the bluest heartache of the year.
[Solo]
[Verse 2]
 A E
If there's a prize for the worlds biggest fool,
                                       A
I'd win for sure and then I'd start a school,
                             D Bm
For all young lovers who've run out of tears,
              A E A
And have the bluest heartache of the year.
[Chorus]
 A D
Bluest heartache of the year;
 E A E
Lonesome memories I can't bare.
 A D Bm
I still love you, but I know you don't care.
              A E A
I've got the bluest heartache of the year.
[Outro]
 D A E A
And have the bluest heartache of the year.

Theme No 1 intro Tabs – Balmorhea

 [Intro]
e|-----4-----|
B|---------5-|
G|-6---------|
D|-----------| x12
A|-----------|
D|-----------|
e|------4-----------4-----------4-----------4-----|
B|----------5-----------5-----------5-----------5-|
G|--6-----------6-----------6-----------6---------|
D|------------------------------------------------| x2
A|--7---------------------------------------------|
D|------------------------------------------------|
e|------4-----|
B|----------5-|
G|--6---------|
D|--------7---| x16
A|--7---------|
D|------------|
[Verse 1] x2
e|------4---------4---------4---------4-----|
B|----------5---------5---------5---------5-|
G|--6---------6---------6---------6---------|
D|--------7---------7---------7---------7---| x4
A|--4---------7---------7---------7---------|
D|------------------------------------------|
e|------4---------4---------4---------4-----|
B|----------5---------5---------5---------5-|
G|--6---------6---------6---------6---------|
D|--------7---------7---------7---------7---| x4
A|------------7---------7---------7---------|
D|--4---------------------------------------|
[Chorus]
e|------7---5-4-----5-4------5-4--|
B|-5------------------------------|
G|--------------------------------|
D|--------7---6---7---6----7------| x2
A|-7----------------------------5-|
D|--------------------------------|
[Verse 2] x3
e|------4-----------4-----------4-----------4-----|
B|----------5-----------5-----------5-----------5-|
G|--6-----------6-----------6-----------6---------|
D|--------7-----------7-----------7-----------7---| x4
A|--4-----------7-----------7-----------7---------|
D|------------------------------------------------|
e|--5---4-------5---4-------5---4-------5---4-----|
B|----------5-----------5-----------5-----------5-|
G|--------------0-----------0-----------0---------|
D|--------7-----------7-----------7-----------7---| x4
A|------------------------------------------------|
D|--4---------------------------------------------|
[Chorus] x2
e|------7---5-4-----5-4------5-4--|
B|-5------------------------------|
G|--------------------------------|
D|--------7---6---7---6----7------|
A|-7----------------------------5-|
D|--------------------------------|

Lost In The Feeling chords – Mark Chesnutt

 [3/4 TIME]
[Intro]
 A
[Verse 1]
 G B E E7
We step out on the dance floor, the band starts to play.
 F#m C# D
Holding you close I get carried  away,
 A D B
Finding that falling is easy  to do,
 G D A
Lost in the feeling with you.
[Verse 2]
 G B E E7
Time standing still as I whirl you around.
       F#m C# D
We’re dancing without even touching the ground.
 A D B
Finding that falling is easy to do,
 G D A
Lost in the feeling with you.
[Chorus]
 F#m Faug A B
No words are spoken, none need to be said.
 Bm7 C#m7 F#m G
You and the music have gone to my head . . . .
[Solo]
 G B E E7 F#m C# D
[Bridge]
     A D B
But I just go on when the music is through,
 G D A
Lost in the feeling with you.
 G D A
Lost in the feeling with you.
[Solo]
 G B E E7 F#m C# D A D B G D A G D A G D A
[Outro]
 G D A
Lost in the feeling  -  with  - -  you.

Withering chords – Blindside

 [Intro]
 Bm G D G Em
[Verse 1]
 G F# D Em G F# A
Are you sure I'm what you came for, Are we playing still? You already know my secret hideout
 F Em G Bm A Em D G F# A
This is hide-and-seek with no point whatsoever, This is hide-and-seek with no point whatsoever
[Chorus]
 Bm G Bm G Bm G D G Bm
Hey     I'm still glorious, But I'm withering like roses in the fall
[Verse 2]
 G F# D Em D F# D
But it's you alone I wait for, When I run to the hideout, You're the inception of beauty
 Em G F# A Em D Bm G F# A
I lay in tar and roll around in feathers, Hide and seek with no point whatsoever
[Chorus]
 Bm G Bm G Bm G D G Bm
Hey     I'm still glorious, But I'm withering like roses in the fall
[Bridge]
 Bm G F Bm A
And we break our silence, with a toast that shatters glass
         Bm F Bm G
And with a shard you stab my heart out, and it's grey and out of shape
             Bm D Bm F A
I feel its growing back inside as you hold my hand, I said move, you stand right in my shame
                         D
But you stand your ground
 Bm G Em Bm D G Em G
Say that I'm still glorious, Say that I'm not withering like roses
[Chorus]
 Bm G Bm G Bm G D G Bm
Hey     I'm still glorious, But I'm withering like roses in the fall
Page 20 of 19,638« First...10...1819202122...304050...Last »