Category: Chords


Buttons And Bows chords – Rab Noakes

 Rab Noakes - Buttons And Bows
CAPO: 4th Fret
[INTRO:]  C F C F C F C F C F G C
[VERSE 1:]
East is east and west is west
And the wrong one I have chose
 F C F
Let's go where they keep on wearin'
       C F C F
Those frills and flowers and buttons and bows
 C F G C
Rings and things and buttons and bows
[VERSE 2:]
Don't bury me in this prairie
Take me where the cement grows
 F C F
Let's move down to some big town
            C F C F
Where they love a gal by the cut of her clothes
     C F G C C7
And you'll stand out in buttons and bows
[BRIDGE:]
      F
I'll love you in buckskin
                           C
Or skirts that you've homespun
But I'll love you longer, stronger where
      D7 G
Your friends don't tote a gun
[VERSE 3:]
    C
My bones denounce the buckboard bounce
And the cactus hurts my toes
 F C F
Let's vamoose where gals keep usin'
       C F C F
Those silks and satins and linen that shows
     C F G C C7
And I'm all yours in buttons and bows
[INSTRUMENTAL:]  F C G
[VERSE 4:]
    C
My bones denounce the buckboard bounce
And the cactus hurts my toes
 F C F
Let's vamoose where gals keep usin'
       C F C F
Those silks and satins and linen that shows
     C F G C
And I'm all yours in buttons and bows
[VERSE 5:]
Gimme eastern trimmin' where women are women
In high silk hose and peek-a-boo clothes
And French perfume that rocks the room
                      G C
And I'm all yours in buttons and bows
 G C G C
Buttons and bows, buttons and bows

Rebecca Sugar – Steven Universe Theme Tabs – Misc Cartoons

 This is my version of an frequently poorly tabbed song from a cartoon! Enjoy!
 Simone Alexander
   "We are the crystal gems, we'll always save the day, and if you think we can't"
e|--------------------------------------------------------------------------------|
B|-----0--------------------------------------------------------------------------|
G|---------2--0--2-----------------4---2---0----2---0-------4---2---0----2--0-----|
D|--0------------------4----1---------------------------0-------------------------|
A|--------------------------------------------------------------------------------|
E|--------------------------------------------------------------------------------|
   "We'll always find a way, that's why the people of this world, believe in;"
e|-----------------------------------------------------------------------------|
B|-----------------------------------------------------------------------------|
G|--------4----2--0----2--0-----------4---2--0--2---4--2-----------------------|
D|---1--------------------------0----------------------------4-----------------|
A|-----------------------------------------------------------------2--0--------|
E|------------------------------------------------------------------------3----|
  "Garnet, Amethyst, and Pearl... and Steven!"
e|---------------------------------------------------------------------------|
B|-------------------------0-------------------------------------------------|
G|--4--2---0--2--0----------------2----7---4---------------------------------|
D|---------------------0-----------------------------------------------------|
A|---------------------------------------------------------------------------|
E|---------------------------------------------------------------------------|

Seek First chords – Housefires

 Seek First – Housefires III
Capo 4th fret
[Verse]
 C G C G
Peace that passes, my understanding
 C Em C G
Love that conquers, my fear and regret
 C G C G
Joy unending, eternal pleasure
 C Em C G
In Your presence, my risen King
[Chorus]
             D Em C G
And I will seek first, Your kingdom
         D Em C G
I will seek first, Your righteousness
          D Em C G
And everything I need, You will provide for me
                 D Em C G
My heart is to seek first, Your kingdom
          C G C G
Oh oh oh oh oh, oh oh oh oh oh
          C Em C G
Oh oh oh oh oh, oh oh oh oh oh
[Bridge]
        C G C G
You’re all I really want, You’re all I really need
        C Em C G
Father every breath I’ve got, You have given it to me        x2

Another Kinda Love solo Tabs – John Mayall & The Bluesbreakers

 John Mayall & The Bluesbreakers - Another kinda love
Album -  A hard road - 1967
Key of G minor
Listen to the track for the correct timing and feel
 John Brennan - 20/08/16
[1.19]
e|-----------------------------13--------------------------------------------|
B|--11h13-11h13-13b15~~--------13--13-11----11-------------------------------|
G|---------------------------------------12----------------------------------|
D|---------------------------------------------------------------------------|
A|---------------------------------------------------------------------------|
E|---------------------------------------------------------------------------|
e|----3----------------6------------6-10-6------6----------------------------|
B|---3-6-3--6b8~rp8~----------------------8-6-8------------------------------|
G|---------------------------------------------------------------------------|
D|---------------------------------------------------------------------------|
A|---------------------------------------------------------------------------|
E|---------------------------------------------------------------------------|
e|---10p8p6-6---8-6-8~-6~----------------------------------------------------|
B|---------8-------------8-6-8-6\--------------------------------------------|
G|---------------------------------------------------------------------------|
D|---------------------------------------------------------------------------|
A|---------------------------------------------------------------------------|
E|---------------------------------------------------------------------------|
[1.35]
e|-----------------------------------------3-----------3---------------------|
B|--8---8-11-8--8\------------------------3--6b~-----6b-6-3------------------|
G|--10b~-------10\---5b7r5p3--5-3-3----5b7-----------------5-3---5-3---------|
D|---------------------------5---5----------------------------5--------------|
A|---------------------------------------------------------------------------|
E|---------------------------------------------------------------------------|
e|--6-3-6-------8-6-8-6-8b10-8b10-8-6-8-6--6---------------------------------|
B|--6------------------------------------8-----------------------------------|
G|---------------------------------------------------------------------------|
D|---------------------------------------------------------------------------|
A|---------------------------------------------------------------------------|
E|---------------------------------------------------------------------------|
[1.47]
e|--13b-13-10----------------------------------------------------------------|
B|-----------13-11---13-11-13b15r13p11-13-11---------------------------------|
G|----------------12------------------------12-------------------------------|
D|---------------------------------------------------------------------------|
A|---------------------------------------------------------------------------|
E|---------------------------------------------------------------------------|
[1.51]
e|---15-------15--15----15---------15--15------------------------------------|
B|---18b20--18--18------18b20----18--18---18-15------------------------------|
G|----------------------------------------------17-15-17b19r17p15---17-15----|
D|----------------------------------------------------------------17-----17--|
A|---------------------------------------------------------------------------|
E|---------------------------------------------------------------------------|
e|--18b20-18-15--------------------------------------------------------------|
B|-------------15------------------------------------------------------------|
G|---------------------15-17-15-17-15----------------------------------------|
D|-----------------------------------17-15-----------------------------------|
A|----------------------------------------17-16-15s13-15-13--13--------------|
E|---------------------------------------

Mama Tried chords – The Everly Brothers

 Mama Tried:The Everly Brothers.
Album - Roots - on WARNER Records
in 1968.
INTRO:  E
#1.
 E A
The first thing I remember knowin' was a
 E A E
lonesome whistle blowin' and a young'un's
                        B
dream of growing up to ride.
      E A E
On a freight train leavin' town not knowin'
           A E
where I'm bound and no one could change my
 B E
mind but Mama tried.
#2.
 E A E
One and only rebel child from a family meek
     A E
and mild, my Mama seemed to know what lay
    B
in store.
             E A
In spite of all my Sunday learnin', towards
     E A E
the bad I kept a-turnin', til Mama couldn't
 B E
hold me anymore.
CHORUS:
 E A
And I turned twenty-one in prison doing life
         E
without parole.
    Dbm B
No one could steer me right but Mama tried,
Mama tried.
      E A
Mama tried to raise me better but her pleading
   E
I denied.
                        B E
That leaves only me to blame, 'cause Mama tried.
#3.
 E A E
Dear old Daddy, rest his soul, left my Mom a
       A
heavy load.
     E B
She tried so very hard to fill his shoes.
         E A E
Working hours without rest, wanted me to have
     A
the best.
     E B E
She tried to raise me right, but I refused.
CHORUS:
 E A
And I turned twenty-one in prison doing life
         E
without parole.
    Dbm B
No one could steer me right but Mama tried,
Mama tried.
      E A
Mama tried to raise me better but her pleading
   E
I denied.
                        B E
That leaves only me to blame, 'cause Mama tried.
OUTRO: E
A sixties smash from Kraziekhat.

Anywhere chords – Passenger Vsion 1

 [Chords]:
G: 320033
D: xx0232
Cadd9: x32033
Em7: 022033
B7: x21202
[Intro]
 G D G Cadd9 Em7 D  x4
[Verse 1]
 G D G
 If you get out on the ocean
 Cadd9 Em7 D
 If you sail out on the sea
 G D G
 If you get up in the mountains
 Cadd9 Em7 D
 If you go climbing on trees
 G D G
 Oh through every emotion
 Cadd9 Em7 D
 When you know that they don't care
 G D G
 Darling, that's when I'm with you
 Cadd9 Em7 D
 Oh I'll go with you anywhere
[Instrumental]
 G D G Cadd9 Em7 D  x2
[Verse 2]
 G D G
 If you get up in a jet plane
 Cadd9 Em7 D
 Or down in a submarine
 G D G
 If you get onto the next train
 Cadd9 Em7 D
 To somewhere you never been
 G D G
 If you wanna ride in a fast car
 Cadd9 Em7 D
 And feel the wind in your hair
 G D G
 Darling just look beside you
 Cadd9 Em7 D
 Oh I'll go with you anywhere
[Instrumental]
 G D G Cadd9 Em7 D
[Chorus]
 Cadd9 Em7
 Oh and I will be with you
 D G D
 When the darkest winter comes
 Cadd9 Em7
 Oh and I will be with you
 D G D Cadd9
 To feel the California sun
          Em7
 Oh and I will be with you
 B7 Em7 D Cadd9
 In the nighttime when it's through
 D
 Oh I'll go anywhere with you
[Instrumental]
 G D G Cadd9 Em7 D  x2
[Verse 3]
 G D G
 If you get up in the hillside
 Cadd9 Em7 D
 If you ride out on the plains
 G D G
 If you go digging up dirt
        Cadd9 Em7 D
 If you go out dancing in the rain
 G D G
 If you go chasing them rainbows
 Cadd9 Em7 D
 Just to find the gold ain't there
 G D G
 Darling just look behind you
 Cadd9 Em7 D
 Oh I'll go with you anywhere
[Instrumental]
 G D G Cadd9 Em7 D
[Chorus]
 Cadd9 Em7
 Oh and I will be with you
 D G D
 When the darkest winter comes
 Cadd9 Em7
 Oh and I will be with you
 D G D Cadd9
 To feel the California sun
          Em7
 Oh and I will be with you
 B7 Em7 D Cadd9
 In the nighttime when it's through
 D
 Oh I'll go anywhere with you
[Instrumental]
 Em7 D Cadd9 G  x2
[Chorus]
 Cadd9 Em7
 Oh and I will be with you
 D G D
 When the darkest winter comes
 Cadd9 Em7</spa

Begonia Seduction Scene Tabs – Porcupine Tree

 Porcupine Tree - Begonia Seduction Scene
Classical guitar
Capo on 2nd fret
Tune the B-string up to a C (EADGCe)
e|-------0-----|-------0-----|-------0-----|-------0-----|
C|-----2---2---|-----2---2---|-----5---5---|-----5---5---|
G|---2-------2-|---2-------2-|---3-------3-|---3-------3-|
D|-0-----------|-0-----------|-0-----------|-0-----------|
A|-------------|-------------|-------------|-------------|
E|-------------|-------------|-------------|-------------| x2
e|-------0-----|-------0-----|-------0-----|-------0-----|
C|-----7---7---|-----7---7---|-----5---5---|-----5---5---|
G|---5-------5-|---5-------5-|---3-------3-|---3-------3-|
D|-0-----------|-0-----------|-0-----------|-0-----------|
A|-------------|-------------|-------------|-------------|
E|-------------|-------------|-------------|-------------| x2
e|-------0-----|-------0-----|
C|-----2---2---|-----2---2---|
G|---2-------2-|---2-------2-|
D|-0-----------|-0-----------|
A|-------------|-------------|
E|-------------|-------------| x3
e|-----0-0-0---|-----0-0-0---|
C|-------------|-------------|
G|---2-------2-|---2-------2-|
D|-0-----------|-0-----------|
A|-------------|-------------|
E|-------------|-------------|
e|-0h1-----0-1---|-------0-----|-------0-----|-------0-----|
C|---------------|-----5---5---|-----7---7---|-----7---7---|
G|-----3-------3-|---3-------3-|---5-------5-|---5-------5-|
D|-------0-------|-0-----------|-0-----------|-0-----------|
A|---------------|-------------|-------------|-------------|
E|---------------|-------------|-------------|-------------|
e|-------0-----|-------0-----|-------0-----|
B|-----5---5---|-----5---5---|-----7---7---|
G|---3-------3-|---3-------3-|---5-------5-|
D|-0-----------|-0-----------|-0-----------|
A|-------------|-------------|-------------|
E|-------------|-------------|-------------|
Fiddle around with this chord
e|-0--|
C|-7--|
G|-5--|
D|-0--|
A|----|
E|----|
Which changes into (1:17)
e|-----------------|
C|-7---7---7---7---|
G|---5---5---5---5-|
D|-----------------|
A|-----------------|
E|-----------------|
And later on transitions to (1:37)
e|-----------------|
C|-0---0---0---0---|
G|---5---5---5---5-|
D|-----------------|
A|-----------------|
E|-----------------|
1:52   [This part is the reason of the weird tuning)
e|-----------------|
B|-0-------0-------|
G|---5---5---5---5-|
D|-----7-------7---|
A|-----------------|
E|-----------------| repeat 11 times
e|-----------------|
B|-0-------0-------|
G|---5---5---5---5-|
D|-----5-------5---|
A|-----------------|
E|-----------------|
e|-----------------|-----------------|-----------------|-----------------|
B|-0-------0-------|-0-------0-------|-0-------0-------|-0-------0-------|
G|---5---5---5---5-|---5---5---5---5-|---5---5---5---5-|---5---5---5---5-|
D|-----5-------4---|-----4-------4---|-----4-------4---|-----4-------4---|
A|-----------------|-----------------|-----------------|-----------------|
E|-----------------|-----------------|-----------------|-----------------|
Lead guitar, with lots of delay, reverb and use of tremolo-arm
Standard tuning, no capo
e|-----19-------|------22---------|-----19-------|-17------------|
B|-17-----------|-/19-----22------|-17-----20----|----17h19------|
G|--------------|-----------------|--------------|---------------|
D|--------------|-----------------|--------------|---------------|
A|--------------|-----------------|--------------|---------------|
E|--------------|-----------------|--------------|---------------|
          (tremolo)
e|-------17-------|--------19-19-19-19-19-19-19-17-17-----|
B|----------17----|---------------------------------------|
G|----------------|---------------------------------------|
D|----------------|---------------------------------------|
A|----------------|---------------------------------------|
E|----------------|---------------------------------------|
        tremolo-dip
e|-17-15

Paid The Piper chords – The Jakes Vsion 2

 The Jakes - Paid The Piper
Shake My Hand EP - 2008
____________________________________________
  "Little riff"
e|--------------|
B|-3/5-3-1h3----|
G|-----------2--|
D|--------------|
A|--------------|
E|--------------|
______________________________________________________________________________
~Intro~
High string guitar noodling for about 3 and a half measures, then the "Little Riff"
 E  -  Am E  -  Am E  -  Am
E - "Little Riff"
~Verse 1~
 E Am E Am
  Paid the piper for your damned religion
 E Am E B
  Lookin' up at the stars-   for signs of it
 E Am E Am
  Bet on mercenaries-  like twin race cars
 E Am E B
  Tell me why this corruption-  ain't all your fault
~Pre-Chorus~
 F#m B F#m
  Waiting by the yard, you're fine
            B F#m
Children's guns they fire by night
          B
Bullets in the dark
        Am
Your life, well it's hard
~Chorus~
        E B
So you bring it up baby
         F#m A
Just to let it down again
         E B
And you say the world has screwed ya
                F#m A
Because you're buying everything
           E B
There's a price to be in heaven
        F#m A
Cause lord, it ain't for free
           E B
You need divine intervention
          F#m A
Come and sanctify me
 E  -  Am E  -  Am E  -  Am
E - "Little Riff"
~Verse 2~
 E Am E Am
  Wait for him in the back,  he's got your dough
 E Am E B
  There've got to be taxes- so let the murders grow
 E Am E Am
  What's wrong with this boy-   his neck is snapped
 E Am E B
  You'd better run from the police 'cause they've got your ass
~Pre-Chorus~
 F#m B F#m
  Waiting by the yard, you're fine
            B F#m
Children's guns they fire by night
          B
Bullets in the dark
        Am
Your life, well it's hard
~Chorus~
        E B
So you bring it up baby
         F#m A
Just to let it down again
         E B
And you say the world has screwed ya
                F#m A
Because you're buying everything
           E B
There's a price to be in heaven
        F#m A
Cause lord, it ain't for free
           E B
You need divine intervention
          F#m A
Come and sanctify me
 E
~Bridge~
 E
"Run Jack Run", You say; "Run Jack Run…"
"Run Jack Run", You say; "Run Jack Run…"
"Run Jack Run", You say; "Run Jack Run…"
"Run Jack Run", You say; "Run Jack Run…"
"Run Jack Run", You say; "Run Jack Run…"
"Run Jack Run", You say; "Run Jack Run…"
"Run Jack Run", You say; "Run Jack Run…"
You say; "Run Jack, Run Jack, Run Jaaa~ck…"
      A
Well yeah~
~Chorus~
        E B
So you bring it up baby
         F#m A
Just to let it down again
         E B
And you say the world has screwed ya
                F#m A
Because you're 

Comeback Kids chords – The Jayhawks

 Capo 5
[Verse]
 Em Am
I Drove Out To Hubert Humphrey At Five In The Morning
 Em Am
With A Carry-On Bag And A Southwest Ticket In My Hand
 Em Am
In My Hand
 Em
You Were Waiting At The Gate
                                          Am
In The Same Dress You Wore The Night I Met You
 Em
We Raced Past The Desk Clerk
                                          Am
She Looked Up From Her Bookwork And She Smiled
[Pre-Chorus]
 Em G D C
RDU And Here We Are
 Em G D C
RDU And Here We Are
 Em
[Corus]
 Cmaj7
Cold And Blow Like A Baseball Diamond
                   G
Waiting For The Summer
 Cmaj7
Staying Inside, Your Toes’ll Stay Dry
                      G
But Never Touch The Sand
 Cmaj7
Go It Alone, Feet Moving Forward
                        G
Trying To Find The Answer
 Cmaj7
Then You Appear, Like Fate Put You Here
                        G
And Then I’m Finally Home
[Verse]
 Em
I Fumbled For The Door
                                        Am
And On The Sunlit Desk I Bent And Kissed You
 Em Am
Your Neck Swept Up Like A Graceful Sail Caught In The Wind
 Em
We’re The Comeback Kids
                                              Am
Never Forgetting What We Did Or Where We Came From
 Em
I Held You So Close
                                   Em
As We Slow Danced To Fox In The Snow
[Pre-Chorus]
 Em G D C
RDU And Here We Are
 Em G D C
RDU And Here We Are
 Em
[Corus]
 Cmaj7
Cold And Blow Like A Baseball Diamond
                   G
Waiting For The Summer
 Cmaj7
Staying Inside, Your Toes’ll Stay Dry
                      G
But Never Touch The Sand
 Cmaj7
Go It Alone, Feet Moving Forward
                        G
Trying To Find The Answer
 Cmaj7
Then You Appear, Like Fate Put You Here
                        G
And Then I’m Finally Home

Woodoo Doll chords – Mystery Gang

 Artist: Mystery Gang Rockabilly Trio
Song: Woodoo doll
[Intro]
 E
[Verse 1]
 E
When I call my baby
 E
On my big red phone
 E E
I say: come on honey, I'm all alone
[Chorus 1]
 A A
I need your huggin', I need your kissin'
 E E
I need a little bit of little bit of lovin'
 A A
I need your huggin', I need your kissin'
 E E
I need a little bit of little bit of lovin'
 B A G E
She's the gal, who stole my soul Woodoo Doll Woodoo Doll
 B A G E
She's the gal, who stole my soul Woodoo Doll Woodoo Doll
[Verse 2]
 E
When I think of my baby
 E
On a cold long night
 E
I say why don't you get me
 E
Honey why don't you get me right?
[Chorus 2]
 A A
I need your huggin', I need your kissin'
 E E
I need a little bit of little bit of lovin'
 A A
I need your huggin', I need your kissin'
 E E
I need a little bit of little bit of lovin'
 B A G E
She's the gal, who stole my soul Woodoo Doll Woodoo Doll
 B A G E
She's the gal, who stole my soul Woodoo Doll Woodoo Doll
[Bridge]
 E
Hoodoo Woodoo, Woodoo Doll
 E
Hoodoo Woodoo, Woodoo Doll
 A
Hoodoo Woodoo, Woodoo Doll
 E
Hoodoo Woodoo, Woodoo Doll
 B A G E
She's the girl, who stole my soul Woodoo Doll Woodoo Doll
[Solo]
 E
[Verse 3]
 E
Since I met my baby
 E
She's on my mind
 E
Well my vain starts to beaten'
 E
Don't foolin' around
[Chorus 3]
 A A
I need your huggin', I need your kissin'
 E E
I need a little bit of little bit of lovin'
 A A
I need your huggin', I need your kissin'
 E E
I need a little bit of little bit of lovin'
 B A G E
She's the gal, who stole my soul Woodoo Doll Woodoo Doll
 B A G E
She's the gal, who stole my soul Woodoo Doll Woodoo Doll
[Outro]
 E
Hoodoo Woodoo, Woodoo Doll
 E
Hoodoo Woodoo, Woodoo Doll
 A
Hoodoo Woodoo, Woodoo Doll
 E
Hoodoo Woodoo, Woodoo Doll
 B A G E
She's the girl, who stole my soul Woodoo Doll Woodoo Doll
 E
Hoodoo Woodoo, Woodoo Doll
 E
Hoodoo Woodoo, Woodoo Doll
 A
Hoodoo Woodoo, Woodoo Doll
 E
Hoodoo Woodoo, Woodoo Doll
 B A G E
She's the girl, who stole my soul Woodoo Doll Woodoo Doll
One more time
 E
Hoodoo Woodoo, Woodoo Doll
 E
Hoodoo Woodoo, Woodoo Doll
 A
Hoodoo Woodoo, Woodoo Doll
 E
Hoodoo Woodoo, Woodoo Doll
 B A G E
She's the girl, who stole my soul Woodoo Doll Woodoo Doll
Page 3 of 19,63812345...102030...Last »