Category: Chords


Closer chords by The Chainsmokers

CAPO on 1st FRET

[Intro]

C D Em D C D Em D

[Verse 1: Andrew Taggart]

C         D        Em

Hey, I was doing just fine just before I met you

  D        C                              D    Em  D

I drank too much and that’s an issue but I’m okay

C       D        Em

Hey, you tell your friends it was nice to meet them

D    C                    D   Em  D

But I hope I never see them again

[MELODY]

e|——————————————————————–|

B|–3——3-3—3-0-0———–3-3—–3-0-5————————|

G|———————2-2-0——————–2-2-0——-4-2——-|

D|—————————————————–0-2————|

A|——————————————————————–|

E|——————————————————————–|

[Pre-Chorus: Andrew Taggart]

C                       D

  I know it breaks your heart

Em                               D     C

Moved to the city in a broke down car and

                D

Four years, no calls

Em                                   D     

Now you’re looking pretty in a hotel bar and

C D         Em D

I  can’t stop

    C D         Em D

No, I  can’t stop

[MELODY]

e|–3–3–3-5-5—3-3-3-3-3-3-5-5-3——10-7—————–7——-|

B|———————————————10-8————–10—|

G|—————————————————7—7-9———-|

D|——————————————————————–|

A|——————————————————————–|

E|——————————————————————–|

[Chorus: Andrew Taggart]

   C               D        Em                   D

So baby pull me closer in the backseat of your Rover

         C                 D

That I know you can’t afford

          Em                   D

Bite that tattoo on your shoulder

           C                       D

Pull the sheets right off the corner

        Em                    D

Of the mattress that you stole

           C                  D

From your roommate back in Boulder

         Em             D

We ain’t ever getting older

[MELODY]

e|—————————————————————-|

B|-9-11-11-9-9-11-11-9-9-13-13-9-9-11-11-9-9-11——————-|

G|—————————————————————-|

D|—————————————————————-|

A|—————————————————————-|

E|—————————————————————-|

e|—————————————————————-|

B|—11-9-9-11-11-9-9-13-13-9-9-11-11-13-9-11———————|

G|—————————————————————-|

D|—————————————————————-|

A|—————————————————————-|

E|—————————————————————-|

e|—————————————————————-|

B|—11-13-9-11-11-9-9-13-13-9-9-11-11-9-9-11———————|

G|—————————————————————-|

D|—————————————————————-|

A|—————————————————————-|

E|—————————————————————-|

e|—————————————————————-|

B|—11-9-9-11-11-9-9-13-13-9-9-11-11-9-9-11———————-|

G|—————————————————————-|

D|—————————————————————-|

A|—————————————————————-|

E|—————————————————————-|

C D Em D C D          Em              D

                  We ain’t ever getting older

C D Em D C D          Em              D

                  We ain’t ever getting older

[Verse 2: Halsey]

C   D      Em   

You, look as good as the day I met you

D   C                          D   Em   D

I forget just why I left you, I was insane

C         D       Em

Stay, and play that Blink-182 song

D      C                      D    Em D

That we beat to death in Tuscon, okay

[MELODY]

e|——————————————————————–|

B|–3——3-3—3-0-0———–3-3—–3-0-5————————|

G|———————2-2-0——————–2-2-0——-4-2——-|

D|—————————————————–0-2————|

A|——————————————————————–|

E|——————————————————————–|

[Pre-Chorus: Halsey]

C                       D

  I know it breaks your heart

Em                               D     C

Moved to the city in a broke down car and

                D

Four years, no calls

Em                                   D     

Now you’re looking pretty in a hotel bar and

C D         Em D

I  can’t stop

    C D         Em D

No, I  can’t stop

[MELODY]

e|–3–3–3-5-5—3-3-3-3-3-3-5-5-3——10-7—————–7——-|

B|———————————————10-8————–10—|

G|—————————————————7—7-9———-|

D|——————————————————————–|

A|——————————————————————–|

E|——————————————————————–|

[Chorus: Andrew Taggart & Halsey]

   C               D        Em                   D

So baby pull me closer in the backseat of your Rover

         C                 D

That I know you can’t afford

          Em                   D

Bite that tattoo on your shoulder

           C                       D

Pull the sheets right off the corner

        Em                    D

Of the mattress that you stole

           C                  D

From your roommate back in Boulder

         Em             D

We ain’t ever getting older

[MELODY]

e|—————————————————————-|

B|-9-11-11-9-9-11-11-9-9-13-13-9-9-11-11-9-9-11——————-|

G|—————————————————————-|

D|—————————————————————-|

A|—————————————————————-|

E|—————————————————————-|

e|—————————————————————-|

B|—11-9-9-11-11-9-9-13-13-9-9-11-11-13-9-11———————|

G|—————————————————————-|

D|—————————————————————-|

A|—————————————————————-|

E|—————————————————————-|

e|—————————————————————-|

B|—11-13-9-11-11-9-9-13-13-9-9-11-11-9-9-11———————|

G|—————————————————————-|

D|—————————————————————-|

A|—————————————————————-|

E|—————————————————————-|

e|—————————————————————-|

B|—11-9-9-11-11-9-9-13-13-9-9-11-11-9-9-11———————-|

G|—————————————————————-|

D|—————————————————————-|

A|—————————————————————-|

E|—————————————————————-|

C D Em D C D          Em              D

                  We ain’t ever getting older

C D Em D C D          Em              D

                  We ain’t ever getting older

[Chorus: Andrew Taggart & Halsey]

   C               D        Em                   D

So baby pull me closer in the backseat of your Rover

         C                 D

That I know you can’t afford

          Em                   D

Bite that tattoo on your shoulder

           C                       D

Pull the sheets right off the corner

        Em                    D

Of the mattress that you stole

           C                  D

From your roommate back in Boulder

         Em             D

We ain’t ever getting older

            Em             D

No we ain’t ever getting older

[Outro]

C D Em D C D Em D

Stay With Me chords by Sam Smith

[Opening]

Am7  F  C

Am7  F  C

[Verse 1]

Am7                      F               C

Guess it’s true, I’m not good at a one-night stand

Am7               F                     C

But I still need love cause I’m just a man

Am7                F             C

These nights never seem to go to plan

Am7                  Gsus                    C

I don’t want you to leave, will you hold my hand?

[Chorus]

         Am   F     C

Won’t you stay with me?

           Am   F  C

Cause you’re all I need

G          Am        F            C

This ain’t love it’s clear to see

      G#dim Am   F    C

But darling, stay with me

Am7           F    C       

       Why am I so emotional?

Am7                F                      C

No it’s not a good look, gain some self control

Am7              F               C

And deep down I know this never works

Am7                  Gsus            C

But you can lay with me so it doesn’t hurt

[Chorus]

         Am   F     C

Won’t you stay with me?

           Am   F  C

Cause you’re all I need

G          Am        F            C

This ain’t love it’s clear to see

      G#dim Am   F    C

But darling, stay with me

[Bridge]

                 Am     F    C

Oh….

                  Am  F   C

Oh…

G             Am        F            C

Oh…

         G#dim Am   F    C

Oh…

[Chorus]

         Am   F     C

Won’t you stay with me?

           Am   F  C

Cause you’re all I need

G          Am        F            C

This ain’t love it’s clear to see

      G#dim Am   F    C

But darling, stay with me

             Am   F     C

Oh, won’t you stay with me?

           Am   F  C

Cause you’re all I need

G          Am        F            C

This ain’t love it’s clear to see

      G#dim Am   F    C

But darling, stay with me

What Do I Know chords by Ed Sheeran

————————————

         CAPO ON 4TH FRET

————————————

[Verse]

C                  G/B    Am

Ain’t got a soapbox I can stand upon

G    F                Em       F         G

But God gave me a stage, a guitar and a song

   C                  G/B       Am            G

My daddy told me “Son, don’t you get involved in

F                  Em        F         G

Politics, religions or other people’s quarrels”

[Prechorus]

F                        Am   G           C

   I’ll paint the picture, let me set the scene

      F                        Am   G           C

I know when I have children they will know what it means

      F                        Am   G           C

And I pass on these things my family’s given to me

     F                        G 

Just love and understanding, positivity

[Chorus]

         C                     G/B      Am

We could change this whole world with a piano

   G  F              Em         F        G

Add a bass, some guitar, grab a beat and away we go

C                 G/B     Am

I’m just a boy with a one-man show

G  F          Em         F      G

No university, no degree But Lord knows

C             G/B     Am

everybody’s talking ’bout exponential growth

   G  F                 Em         F        G

And the stock market’s crashing in their portfolios

      C                 G/B     Am

While I’ll be sitting here with a song that I wrote

   G  F              Em                F       

Sing, love could change the world in a moment

   G                C G/B Am

But what do I know?

G  F                    Em        F      

   Love can change the world in a moment

   G                C G/B Am

But what do I know?

G  F                    Em        F         G

   Love can change the world in a moment

[Verse]

    C                  G/B    Am

The revolutions coming its a minute away

G  F                Em       F         G

I saw people marching in the streets today

   C                     G/B    Am

You know we are made up of love and hate

G   F                Em       F         G

but both of them are balanced on a razor blade

[Prechorus]

F                        Am   G           C

   I’ll paint the picture, let me set the scene

      F                        Am   G           C

I know I’m all for people following their dreams

      F                        Am   G           C

Just remember life is more than fitting in your jeans

     F                        G 

It’s love and understanding, positivity

[Chorus]

         C                     G/B      Am

We could change this whole world with a piano

   G  F              Em         F        G

Add a bass, some guitar, grab a beat and away we go

C                 G/B     Am

I’m just a boy with a one-man show

G  F          Em         F      G

No university, no degree But Lord knows

C             G/B     Am

everybody’s talking ’bout exponential growth

   G  F                 Em         F        G

And the stock market’s crashing in their portfolios

      C                 G/B     Am

While I’ll be sitting here with a song that I wrote

   G  F              Em                F       

Sing, love could change the world in a moment

   G                C G/B Am

But what do I know?

G  F                    Em        F      

   Love can change the world in a moment

   G                C G/B Am

But what do I know?

G  F                    Em        F        G

   Love can change the world in a moment

[Prechorus]

F                        Am   G           C

   I’ll paint the picture, let me set the scene

      F                        Am   G           C

You know the futures in the hands of you and me

      F                        Am   G           C

So lets all get together we can all be free

     F                        G 

Spread love and understanding, positivity

[Chorus]

         C                     G/B      Am

We could change this whole world with a piano

   G  F              Em         F        G

Add a bass, some guitar, grab a beat and away we go

C                 G/B     Am

I’m just a boy with a one-man show

G  F          Em         F      G

No university, no degree But Lord knows

C             G/B     Am

everybody’s talking ’bout exponential growth

   G  F                 Em         F        G

And the stock market’s crashing in their portfolios

      C                 G/B     Am

While I’ll be sitting here with a song that I wrote

   G  F              Em                F       

Sing, love could change the world in a moment

   G                C G/B Am

But what do I know?

G  F                    Em        F      

   Love can change the world in a moment

   G                C G/B Am

But what do I know?

G  F                    Em        F      

   Love can change the world in a moment

Bluest Heartache chords – Ricky Skaggs

 [Chorus]
 A D
Bluest heartache of the year;
 E A E
Lonesome memories I can't bare.
 A D Bm
I still love you, but I know you don't care.
              A E A
I've got the bluest heartache of the year.
[Verse 1]
 A E
You looked so pretty out there on the floor,
                                           A
Dancing with him while I watched from the door.
                         D Bm
He held you closer than I've ever dared.
              A E A
I've got the bluest heartache of the year.
[Chorus]
 A D
Bluest heartache of the year;
 E A E
Lonesome memories I can't bare.
 A D Bm
I still love you, but I know you don't care.
              A E A
I've got the bluest heartache of the year.
[Solo]
[Verse 2]
 A E
If there's a prize for the worlds biggest fool,
                                       A
I'd win for sure and then I'd start a school,
                             D Bm
For all young lovers who've run out of tears,
              A E A
And have the bluest heartache of the year.
[Chorus]
 A D
Bluest heartache of the year;
 E A E
Lonesome memories I can't bare.
 A D Bm
I still love you, but I know you don't care.
              A E A
I've got the bluest heartache of the year.
[Outro]
 D A E A
And have the bluest heartache of the year.

Theme No 1 intro Tabs – Balmorhea

 [Intro]
e|-----4-----|
B|---------5-|
G|-6---------|
D|-----------| x12
A|-----------|
D|-----------|
e|------4-----------4-----------4-----------4-----|
B|----------5-----------5-----------5-----------5-|
G|--6-----------6-----------6-----------6---------|
D|------------------------------------------------| x2
A|--7---------------------------------------------|
D|------------------------------------------------|
e|------4-----|
B|----------5-|
G|--6---------|
D|--------7---| x16
A|--7---------|
D|------------|
[Verse 1] x2
e|------4---------4---------4---------4-----|
B|----------5---------5---------5---------5-|
G|--6---------6---------6---------6---------|
D|--------7---------7---------7---------7---| x4
A|--4---------7---------7---------7---------|
D|------------------------------------------|
e|------4---------4---------4---------4-----|
B|----------5---------5---------5---------5-|
G|--6---------6---------6---------6---------|
D|--------7---------7---------7---------7---| x4
A|------------7---------7---------7---------|
D|--4---------------------------------------|
[Chorus]
e|------7---5-4-----5-4------5-4--|
B|-5------------------------------|
G|--------------------------------|
D|--------7---6---7---6----7------| x2
A|-7----------------------------5-|
D|--------------------------------|
[Verse 2] x3
e|------4-----------4-----------4-----------4-----|
B|----------5-----------5-----------5-----------5-|
G|--6-----------6-----------6-----------6---------|
D|--------7-----------7-----------7-----------7---| x4
A|--4-----------7-----------7-----------7---------|
D|------------------------------------------------|
e|--5---4-------5---4-------5---4-------5---4-----|
B|----------5-----------5-----------5-----------5-|
G|--------------0-----------0-----------0---------|
D|--------7-----------7-----------7-----------7---| x4
A|------------------------------------------------|
D|--4---------------------------------------------|
[Chorus] x2
e|------7---5-4-----5-4------5-4--|
B|-5------------------------------|
G|--------------------------------|
D|--------7---6---7---6----7------|
A|-7----------------------------5-|
D|--------------------------------|

Lost In The Feeling chords – Mark Chesnutt

 [3/4 TIME]
[Intro]
 A
[Verse 1]
 G B E E7
We step out on the dance floor, the band starts to play.
 F#m C# D
Holding you close I get carried  away,
 A D B
Finding that falling is easy  to do,
 G D A
Lost in the feeling with you.
[Verse 2]
 G B E E7
Time standing still as I whirl you around.
       F#m C# D
We’re dancing without even touching the ground.
 A D B
Finding that falling is easy to do,
 G D A
Lost in the feeling with you.
[Chorus]
 F#m Faug A B
No words are spoken, none need to be said.
 Bm7 C#m7 F#m G
You and the music have gone to my head . . . .
[Solo]
 G B E E7 F#m C# D
[Bridge]
     A D B
But I just go on when the music is through,
 G D A
Lost in the feeling with you.
 G D A
Lost in the feeling with you.
[Solo]
 G B E E7 F#m C# D A D B G D A G D A G D A
[Outro]
 G D A
Lost in the feeling  -  with  - -  you.

Withering chords – Blindside

 [Intro]
 Bm G D G Em
[Verse 1]
 G F# D Em G F# A
Are you sure I'm what you came for, Are we playing still? You already know my secret hideout
 F Em G Bm A Em D G F# A
This is hide-and-seek with no point whatsoever, This is hide-and-seek with no point whatsoever
[Chorus]
 Bm G Bm G Bm G D G Bm
Hey     I'm still glorious, But I'm withering like roses in the fall
[Verse 2]
 G F# D Em D F# D
But it's you alone I wait for, When I run to the hideout, You're the inception of beauty
 Em G F# A Em D Bm G F# A
I lay in tar and roll around in feathers, Hide and seek with no point whatsoever
[Chorus]
 Bm G Bm G Bm G D G Bm
Hey     I'm still glorious, But I'm withering like roses in the fall
[Bridge]
 Bm G F Bm A
And we break our silence, with a toast that shatters glass
         Bm F Bm G
And with a shard you stab my heart out, and it's grey and out of shape
             Bm D Bm F A
I feel its growing back inside as you hold my hand, I said move, you stand right in my shame
                         D
But you stand your ground
 Bm G Em Bm D G Em G
Say that I'm still glorious, Say that I'm not withering like roses
[Chorus]
 Bm G Bm G Bm G D G Bm
Hey     I'm still glorious, But I'm withering like roses in the fall

Herex Tabs – Biffy Clyro

 Biffy Clyro – Herex
 Ellipsis
Tuning: Drop C#/Db
[Intro]
Eb|---------------------------
Bb|---------------------------
Gb|---------------------------
Db|-------------------5-5-5-5-
Ab|-------------8----\3-3-3-3-
Db|-3----\10-10---------------
Main Riff:
Eb|-----------------------------
Bb|-----------------------------
Gb|-----------------------------
Db|---------------10----5-5-5-5-      x3
Ab|-3----10-10----8-----3-3-3-3-
Db|-3----10-10------------------
[Verse]
Eb|----------------------------------------------------------------------------------------
Bb|----------------------------------------------------------------------------------------
Gb|----------------------------------------------------------------------------------------
Db|---------------------------------------------------------------------------------------- x2
Ab|----------------------------------------------------------------------------------------
Db|-10-10---10-10-10-10-------10-10---10-10-10-10-------7-7---7-7-7-7-------6-6----6-6-6-6-
[Pre-Chorus]
Eb|-----------------
Bb|-----------------
Gb|-7-------5-------
Db|-5-------3-------  x2
Ab|-5-------3-------
Db|-5-------3-------
[Chorus]
Eb|-0----0----0--------------------------------------------0----0----0-0----0-
Bb|----------------1----1-1----1-1----1-1----1-1----3-3----1----1----1-1----1-
Gb|-5----5----5----2----2-2----2-2----2-2----2-2----0-0----2----2----2-2----2-
Db|-5--------------3----3-3----3-3----3-3----3-3----0-0----2----2----2-2----2-  x2
Ab|-3----5----7----3----3-3----3-3----3-3----3-3-----------0----0----0-0----0-
Db|----------------3----3-3----3-3----3-3----3-3----5-5-----------------------
Main Riff:
Eb|-----------------------------
Bb|-----------------------------
Gb|-----------------------------
Db|---------------10----5-5-5-5-  x2
Ab|-3----10-10----8-----3-3-3-3-
Db|-3----10-10------------------
[Verse]
Eb|----------------------------------------------------------------------------------------
Bb|----------------------------------------------------------------------------------------
Gb|----------------------------------------------------------------------------------------
Db|----------------------------------------------------------------------------------------
Ab|----------------------------------------------------------------------------------------
Db|-10-10---10-10-10-10-------10-10---10-10-10-10-------7-7---7-7-7-7-------6-6----6-6-6-6-
Eb|-------------------------------------------------------------------------------------------
Bb|-------------------------------------------------------------------------------------------
Gb|-------------------------------------------------------------------------------------------
Db|-------------------------------------------------------------------------------------------
Ab|-------------------------------------------------------------------------------------------
Db|-9b10-10-10---10-10-10-10-------10-10---10-10-10-10-------7-7---7-7-7-7-------6-6---6-6-6-6
[Pre-Chorus]
Eb|-----------------
Bb|-----------------
Gb|-7-------5-------
Db|-5-------3-------  x2
Ab|-5-------3-------
Db|-5-------3-------
[Chorus]
Eb|-0----0----0--------------------------------------------0----0----0-0----0-
Bb|----------------1----1-1----1-1----1-1----1-1----3-3----1----1----1-1----1-
Gb|-5----5----5----2----2-2----2-2----2-2----2-2----0-0----2----2----2-2----2-
Db|-5--------------3----3-3----3-3----3-3----3-3----0-0----2----2----2-2----2-   x3
Ab|-3----5----7----3----3-3----3-3----3-3----3-3-----------0----0----0-0----0-
Db|----------------3----3-3----3-3----3-3----3-3----5-5-----------------------
Eb|-0----0----0-----------------------------------------
Bb|----------------1----1-1----1-1----1-1----1-1----3-3-
Gb|-5----5----5----2----2-2----2-2----2-2----2-2----0-0-
Db|-5--------------3----3-3----3-3----3-3----3-3----0-0-
Ab|-3----5----7----3----3-3----3-3----3-3----3-3--------
Db|----------------3----3-3----3-3-

Hilang chords – Mulan Jameela

 •       : Setiawan Dwi Rakhmadi
• Tuning         : Standard
• Official MV    : https://www.youtube.com/watch?v=sTZfYfVq9P0
• Helping Chords : - G6    : 320000 or 3200××
                   - E/G#  : 4221××
                   -  Am/F#  : 202210
                   -  Bm/F#  : 224432
                   -  Dm/F   : 100231
                   - D/B   : ×20232
[Intro]
e|---------------|---------------|---------------|---------------|
B|---------------|---------------|---------------|---------------|
G|-4---2---4-----|-2---0---2-----|-0-------0-----|---------------|
D|-------------0-|-------------0-|-----4-------0-|-4---2---4---0-|
A|---------------|---------------|---------------|---------------|
E|---------------|---------------|---------------|---------------|
e|-×-------------|
B|-×-------------|
G|-0-------------|
D|-0-------------|
A|-2-------------|
E|-3-------------|
[Verse]
 G6 F#
  Dinginku ini
 F E E/G#
  bukan tak berarti kepada dirimu
 C G6 A/C#
  Ku pernah kecewa dan hatiku pernah terluka
          D/A
  Walau kamu tak tahu
[Verse]
 G6 F#
  Memang salahku
 F E E/G#
  Ku pernah membuka pintu hati ini
 C G6 A/C#
  Meski tak mungkin bisa aku dan kamu
            D/A
  Untuk selama-lamanya
[Pre-Chorus]
   C D
  Kini ku akan pergi
   C D Em7 Am/F# G D
  menghilang dari hidupmu
[Chorus]
      Cmaj7 Bm7
  Jangan pernah menangis sayang
       Bm/F# Am7 D7 Dm/F G
  Bila saat-nya tiba ku tak di sini
      Cmaj7 Bm7 E7 Am
  Jangan pernah sesali apa yang telah terjadi
   Am/G F#m7 B E
  Kini ku menghilang dan aku pun harus pergi
[interlude]
  A E D
[Verse]
 G6 F#7
  Maafkan sayang
 Bm E E/G#
  Aku tak pernah bisa jadi milik kamu
 C G6 A/C#
  Dan pastinya kamu pun takkan pernah bisa
         D/A D/B
  Jadi milikku jua
[Pre-Chorus]
 C D
  Kini ku akan pergi
   C D Em7 Am/F# G D
  menghilang dari hidupmu
[Chorus]
     Cmaj7 Bm7
  Jangan pernah menangis sayang
            Am7 D7 Dm/F G
  Bila saatnya tiba ku tak di sini
    Cmaj7 Bm7 E7 Am
  Jangan pernah sesali apa yang telah terjadi
   Am/G F#m7 B E A E D
  Kini ku menghilang dan aku pun harus pergi   pergi
[interlude]
  E A E D E
[Modulation]
      Dmaj7 C#m7
  Jangan pernah menangis sayang
            Bm7 Bm7/A Em A
  Bila saatnya tiba ku tak di sini
      Dmaj7 C#m7 F#7 Bm
  Jangan pernah sesali apa yang telah terjadi
   Bm/A G#m C# F#
  Kini ku menghilang dan aku pun harus pergi
 E Dmaj7 C#m7
  Jangan pernah menangis sayang
            Bm7 Bm7/A Em A
  Bila saatnya tiba ku tak di sini
     Dmaj7 C#m7 F#7

No One Knows Tabs – Queens of the Stone Age Vsion 10

 This is the most recognizable of QOTSA & need almost just 1 guitar to go through the song. But that
will ruin the distinctive sound of the  thick & crunchy. So, there will be 2 guitars involved.
Also, this is the Live-Casual version, so the Solo might be a bit different for both guitars
Guit.1: Josh's
Guit.2: Troy's
[Intro]
Both Guitars
C |-12-|
G |--8-|
D#|--x-|  X4
A#|--9-|
F |--7-|
C |----|
Guit.1
C |---------------------------------|
G |-------10-10--8--8---10-10--8--8-|
D#|--------x--x--x--9----x--x--x--9-|   X2
A#|--------9--9--9--9----9--9--9--9-|
F |--------7--7--7--7----7--7--7--7-|
C |-12\\-0--------------------------|
Guit.1 (Note: that bend is down, not up)
C |---------------------------------|
G |-------10-10--8--8---10-10br12---|
D#|--------x--x--x--9----x--x-------|
A#|--------9--9--9--9----9--9-------|
F |--------7--7--7--7----7--7-------|
C |-12\\-0--------------------------|
Guit.1
C |------------------------7--|
G |-------10-10--8--8------7--|
D#|--------x--x--x--9--0--(7)-|
A#|--------9--9--9--9---------|
F |--------7--7--7--7---------|
C |-12\\-0--------------------|
[Verse 1]
Guit.1
We get some rules to follow
That and this, these and those
C |------------------------|       |-----------------------|
G |---8---8---8---8-0-8--8-|       |---8---8---8---8-0-8-0-|
D#|---x---x---x---x-0-x--x-| X3    |---x---x---x---x-0-x-0-|
A#|---9---9---9---9-0-9--9-|       |---9---9---9---9-0-9-0-|
F |---7---7---7---7-0-7--7-|       |---7---7---7---7-0-7-0-|
C |-0---0---0---0----------|       |-0---0---0---0---------|
Guit.1 (Note: the strumming pattern at the 1st part has some space, while the 2nd is rapidly strumming)
C |-----|      |------|
G |-----|      |------|
D#|-8-8-| X3   |-8|||-|
A#|-x-x-|      |-x|||-|
F |-9-9-|      |-9|||-|
C |-7-7-|      |-7|||-|
Guit.1
C |-----|      |--------|
G |-8-8-|      |-8||(|)-|
D#|-8-8-| X3   |-8||(|)-|
A#|-x-x-|      |-x||(|)-|
F |-6-6-|      |-6||(|)-|
C |-----|      |--------|
Guit.1
C |---------------------------------|    |--------------------7---0--|
G |-------10-10--8--8---10-10--8--8-|    |-------10-10--8--8--7---0--|
D#|--------x--x--x--9----x--x--x--9-|    |--------x--x--x--9-(7)-(0)-|
A#|--------9--9--9--9----9--9--9--9-|    |--------9--9--9--9---------|
F |--------7--7--7--7----7--7--7--7-|    |--------7--7--7--7---------|
C |-12\\-0--------------------------|    |-12\\-0--------------------|
[Verse 2]
Guit.1
We get these pills to swallow
How they stick in your throat
C |------------------------|       |-----------------------|
G |---8---8---8---8-0-8--8-|       |---8---8---8---8-0-8-0-|
D#|---x---x---x---x-0-x--x-| X3    |---x---x---x---x-0-x-0-|
A#|---9---9---9---9-0-9--9-|       |---9---9---9---9-0-9-0-|
F |---7---7---7---7-0-7--7-|       |---7---7---7---7-0-7-0-|
C |-0---0---0---0----------|       |-0---0---0---0---------|
Guit.1
C |-----|      |------|
G |-----|      |------|
D#|-8-8-| X3   |-8|||-|
A#|-x-x-|      |-x|||-|
F |-9-9-|      |-9|||-|
C |-7-7-|      |-7|||-|
Guit.1
Taste like gold
C |-----|      |--------|
G |-8-8-|      |-8||(|)-|
D#|-8-8-| X3   |-8||(|)-|
A#|-x-x-|      |-x||(|)-|
F |-6-6-|      |-6||(|)-|
C |-----|      |--------|
Guit.1
C |----------------------------------------------|    |----------------------------|  |----|
G |-------10-10--8--8---10-10--(8)---------------|    |--10-10--8--8---10-10--8--8-|  |-xx-|
D#|--------x--x--x--9----x--x--(x)---------------|    |---x--x--x--9----x--x--x--9-|  |-xx-|
A#|--------9--9--9--9----9--9--(9)---------------|    |---9--9--9--9----9--9--9--9-|  |-xx-|
F |--------7--7--7--7----7--7--(7)-----5h7p5-----|    |---7--7--7--7----7--7--7--7-|  |-xx-|
C |-12\\-0-------------------------5h7-------7-5-|    |-0--------------------------|  |----|
Guit.1
Oh what you do to me
C |-----|      |------|
G |-----|      |------|
D#|-8-8-| X3   |-8|||-|
A#|-x-x-|      |-x|||-|
F |-9-9-|      |-9|||-|
C |-7-7-|      |-7|||-|
C |-----|      |--------|
G |-8-8-| 
Page 3 of 19,64012345...102030...Last »