Category: Chords


Goodbye Booze chords – Rab Noakes

 Rab Noakes - Goodbye Booze
CAPO: 2nd Fret
[INTRO:]  G C/G G D/F# G C/G G D/F# G
[CHORUS:]
             C/G G
Oh, goodbye booze, forevermore
            D/F# G
My boozin' days will soon be o'er
                  C/G G
Oh, I had a good time, but we couldn't agree
                  D/F# G
Now you see what booze has done for me
[VERSE 1:]
             C/G G
She tore my clothes, she swelled my head
            D/F# G
So goodbye booze, I'm goin' to bed
                  C/G G
Oh, I had a good time and we couldn't agree
                   D/F# G
When you see what booze has done for me
[VERSE 2:]
                C/G G
She slammed my head and broke my heart
            D/F# G
So goodbye booze, we now must part
                  C/G G
Oh, I had a good time, but we couldn't agree
                  D/F# G
Now you see what booze has done for me
[INSTRUMENTAL:]  G C/G G D/F# G C/G G D/F# G
[VERSE 3:]
                   C/G G
She whispered low, how sweet it sounds
                        D/F# G
Won't you take another ride, on the merry-go-round
                  C/G G
Oh, I had a good time, couldn't agree
                  D/F# G
Oh, you see what booze has done for me
[CHORUS:]
             C/G G
Oh, goodbye booze (goodbye booze), forevermore
            D/F# G
My boozin' days will soon be o'er
                  C/G G
Oh, I had a good time, but we couldn't agree
                  D/F# G
Now you see what booze has done for me
              D/F# G D/F# G
You see what booze has done for me

Seek First chords – Jason Upton

 [Verse]
 F C
Peace that passes, my understanding
 F C
Love that conquers, my fear and regret
 F Am
Joy unending, eternal pleasure
 F C
In your presence, my risen King
[Chorus]
        G Am F C
I will seek first, your kingdom
        G Am F C
I will seek first, your righteousness
        G Am F C
Everything I need, you will provide for me
    G Am F C
My heart is to seek first, your kingdom
[Bridge]
 F C
You’re what I really want
 F C
You’re all I really need
 F Am
And everything I've got
 F C
You have given it to me

18 chords – 5 Seconds Of Summer Vsion 3

 [Intro]
e|------------------------------------|
B|------------2-3-2-0-----------------|
G|--------2-2---------2-----0-0-------|  x4
D|----------------------4-4-----------|
A|------------------------------------|
E|------------------------------------|
OR
 A G D
[Verse 1]
 A G D
I wish, that I was eighteen
 A G D
Do all the things you read in the magazines.
 A G D
I’m not sayin' I wanna be Charlie Sheen.
 A G D A G D
She’s just a little bit older
 A G D
But, I want to get to know her.
 A G D
But she says it’s already over.
 A G D
[Pre-Chorus]
 Em G
So tell me what else can I do?
              A
I bought my fake ID for you.
[Chorus]
 D A
She told me to meet her there,
                      Em
I can’t afford a bus fare.
I’m not old enough for her,
 G A
I’m just waiting till I’m eighteen.
e|------------------------------------|
B|------------2-3-2-0-----------------|
G|--------2-2---------2-----0-0-------|  x2
D|----------------------4-4-----------|
A|------------------------------------|
E|------------------------------------|
[Verse 2]
 A G D
I think she wants to get with me
 A G D
But, she’s got a job in the city.
 A G D
And says that she’s always too busy.
 A G D A G D
She’s got a naughty tattoo
 A G D
In a place that I wanna get to
 A G D
But, my mom still drives me to school.
 A G D
[Pre-Chorus]
 Em G
So tell me what else can I do?
              A
I bought my fake ID for you.
[Chorus]
 D A
She told me to meet her there,
                      Em
I can’t afford a bus fare.
I’m not old enough for her,
 G Dm
I’m just waiting till I’m eighteen.
 D A
You got me waiting in a queue
                        Em
For a bar I can’t get into.
I’m not old enough for you,
 G A
I’m just waiting till I’m eighteen.
[Bridge]
 Em F#m Gm Cm Am G#m
                   In my bedroom thinking of ya,
 Em F#m Gm Cm Am G#m
                   Her pictures in my private folder.
 Em F#m Gm Cm Am G#m
                   I know one day that I will hold her.
 Em F#m Gm Cm Am F#m
                   I’ll make my move when I get older,
                   Make my move when I get older.
e|------------------------------------|
B|------------2-3-2-0-----------------|
G|--------2-2---------2-----0-0-------|  x2
D|----------------------4-4-----------|
A|------------------------------------|
E|------------------------------------|
[Chorus]
 D A
She told me to meet her there,
                      Em
I can’t afford a bus fare.
I’m not old enough for her,
 G Dm
I’m just waiting till I’m eighteen.
 D A
You got me waiting in a queue
                        Em
For a ba

Hola Les Lolos acoustic chords – Bernard Adamus

[Intro]
 A7 D A7 D A7 D
[Verse 1]
    D A7
 J'en connais des peu parleux, mais su'l sujet sont ben jasants
   A7
 On dirait qu'leu faces allument
   A7
 Un meilleur monde les attend
    D
 Quèque part ailleurs au firmament
[Verse 2]
  D
 Le sourire large de même 'gar-les qui gesticulent
             A7
 Avec leurs deux mains dins air en majuscule
            A7
 Ou ben du boutte des doigts pour t'expliquer ça
     D
 « Ben non crains pas, tu manqueras pas une virgule »
[Verse 3]
  D
 Y voient des lacs, font des bombes dans l'eau
    A7
 L'été, c'est bon pour les crampes au cerveau
    A7
 Moi, Alpaga, ça m'prend ta peau
    D G A7 D
 L'automne arrive, faut qu'j'me chauffe les os
[Chorus]
  D
 ek mes dents d'requin
                 G
 Moi j'pense à fille de Rouyn
       A7
 Mais comme dirait l'autre
             D
 D'où est-ce q'tu penses que j'viens
[Verse 4]
  D
 Ma smoke au bec au large là-bas
  A7
 À Caraquet, au festival du béluga
  A7
 Qu'ça s'passait pas les gars riaient d'moi
       D
 J'ai pris une shot su'ma yeule de bois
[Verse 5]
  D
 Pistache cerise ou ben melon chocolat
     A7
 À chacun son selon sa saveur du mois
     A7
 Toutes les équipes s'entendent pour dire
          D
 Que pour rien au monde on s'en passerait pas
[Verse 6]
  D
 C't'à s'en ennuyer
 Qu'ça va t'titiller
        A7
 Jusque dins talons les jours d'été
    A7
 Ou à l'ombre d'tes ch'veux j'aurais été
  D G A7 C
 Un animal du bout d'mon nez
[Chorus]
  D
 ek mes dents d'requin
                 G
 Moi j'pense à fille de Rouyn
       A7
 Mais comme dirait l'autre
             D
 D'où est-ce q'tu penses que j'viens
  D A7
 Hola les lolos
  A7 D
 Hola les lolos (2x)
[Instrumental]
 D A7 D A7 D A7 D
[Verse 7]
  D
 P'tits ou gros
  D
 Hola les lolos
     A7
 On lève les bras et on s'couche su'l dos
     A7
 Pas d'chut chut chut ni de tss tss tss
       D
 Tout l'monde ensemble
       D
 We all love tits
[Verse 8]
  D
 Tu tombes d'un arbre sur une peau d'ours
    A7
 L'hiver est lent on slaque la course
    A7
 Au p'tit printemps les quatre saisons
      D
 Une gorge d'miel saveur maison
[Verse 9]
  D
 Le poids d'ma noix quand l'vert jaunit
        A7
 Dans l'creux d'tes mains qu'l'ciel est gris
        A7
 À snoozes-tu ben au p'tit matin
     D G A7 D
 Ma belle grande face entre tes deux seins
[Chorus]
  D
 ek mes dents d'requin
                 G
 Moi j'pense à fille de Rouyn
       A7
 Mais comme dirait l'autre
             D
 D'où est-ce q'tu penses que j'viens
  D A7
 Hola les lolos
  A7 D
 Hola les lolos (3x)

Naivety Tabs – A Day to Remember

 [Intro]
Guitar 1:
d|------------------------------------------------------------|
A|------------------------------------------------------------|
F|-------7~----------7~-------------7~------------------------|
C|--9~---x---7~--5~--x---7~----9~---x---7~--5~---7~-----------|
G|--x----5~--x---x---5~--x-----x----5~--x---x----x------------|
C|--9~-------7~--5~------7~----9~-------7~--5~---7~-----------|
Guitar 2:
d|----------------------------------------------------------------|
A|----------------------------------------------------------------|
F|-------------------7~-------------------------------------------|
C|--9~-----------5~--7~--------9~-----------5~---7~---------------|
G|--9------------5~--5~--------9~-----------5~---7~---------------|
C|--9~-----------5~------------9~-----------5~---7~---------------|
[Verse 1]
Both guitars:
d|------------------------------------------------------------------------------|
A|------------------------------------------------------------------------------|
F|----------------------------------------------------------7-------------------|
C|--9-9----------------------------------5------------------7-7-7-7-7-7-7-7-7---|
G|--9-9-9-9-9-9-9-9-9-9-9-9-9-9-9-9-9-9--5-5-5-5-5-5-5-5-5--5-5-5-5-5-5-5-5-5---|
C|--9-9-9-9-9-9-9-9-9-9-9-9-9-9-9-9-9-9--5-5-5-5-5-5-5-5-5----------------------|
pm      . . . . . . . . . . . . . . . .    . . . . . . . .    . . . . . . . .
d|-----------------------------------------------------------------------------|
A|-----------------------------------------------------------------------------|
F|---------------------------------------------------------7-------------------|
C|---9----------------------------------5------------------7-7-7-7-7-7-7-7-7---|
G|---9-9-9-9-9-9-9-9-9-9-9-9-9-9-9-9-9--5-5-5-5-5-5-5-5-5--5-5-5-5-5-5-5-5-5---|
C|---9-9-9-9-9-9-9-9-9-9-9-9-9-9-9-9-9--5-5-5-5-5-5-5-5-5----------------------|
pm     . . . . . . . . . . . . . . . .    . . . . . . . .    . . . . . . . .
d|--------------------------------------------------------------------------|
A|--------------------------------------------------------------------------|
F|-----------------------------------------------------------7-------7------|
C|-------9-------9-------9-------9---------5-------5-----7-7-7-7-7-7-7-7----|
G|---9-9-9-9-9-9-9-9-9-9-9-9-9-9-9-9---5-5-5-5-5-5-5-5---5-5-5-5-5-5-5-5----|
C|---9-9-9-9-9-9-9-9-9-9-9-9-9-9-9-9---5-5-5-5-5-5-5-5----------------------|
pm   . .   . . .   . . .   . . .   .   . .   . . . . .   . .   . . .   .
d|--------------------------------------------------------------------------|
A|--------------------------------------------------------------------------|
F|--------------------------------------------------------------------------|
C|-------9-------9-------9-------9---------5-------5---------7-------7------|
G|---9-9-9-9-9-9-9-9-9-9-9-9-9-9-9-9---5-5-5-5-5-5-5-5---7-7-7-7-7-7-7-7----|
C|---9-9-9-9-9-9-9-9-9-9-9-9-9-9-9-9---5-5-5-5-5-5-5-5---7-7-7-7-7-7-7-7----|
pm   . .   . . .   . . .   . . .   .   . .   . . . . .   . .   . . .   .
[Pre Chorus 1]
Both Guitars:
d|----------------------------------------------------------------------------|
A|----------------------------------------------------------------------------|
F|----------------------------------------------------------------------------|
C|----5-----------------------------------7-----------------------------------|
G|----5-5-5-5-5-5-5-5-5-5-5-5-5-5-5-5-5---7-7-7-7-7-7-7-7-7-7-7-7-7-7-7-7-7---|
C|----5-5-5-5-5-5-5-5-5-5-5-5-5-5-5-5-5---7-7-7-7-7-7-7-7-7-7-7-7-7-7-7-7-7---|
pm      . . . . . . . . . . . . . . . .     . . . . . . . . . . . . . . . .
[Chorus 1]
Guitar 1:
d|---------------------------------------------------------------------|
A|---------------------------------------------------------------------|
F|--7-7-7-7-7-7-7-7-7-7-7-7-7-7-7-7---6-6-6-6-6-6-6-6--6-7--6--4--2-4--|
C|--x-x-x-x-x-x-x-x-x-x-x-x-x-x-x-x---x-x-x-x-x-x-x-x--x-x--x--x--x-x--|
G|--5-5-5-5-

Days chords – David Bowie Vsion 2

 Lovely little forgotten song off the Reality album. I've posted a capo version first (on the 3rd fret),
because it isn't much fun to play with out a capo personally. It's played on acoustic so sounds much better
with mostly open chords.
★
[Intro]
 Em G# Em G#
[Verse]
 Em
Hold me tight
 G#
Keep me cool
 Em
Going mad
            G#
Don't know what to do
 A C
Do I need a friend
        G#
Well I need one now
[Chorus]
 D C
All the days of my life
 D C
All the days of my life
 D Em G# Em G#
All the days I owe you
[Verse]
 Em
All I've done
      G#
I've done for me
 Em
All you gave
     G#
You gave for free
 A C
I gave nothing in return
                    G#
And there's little left of me
[Chorus]
 D C
All the days of my life
 D C
All the days of my life
 D Em G# Em G#
All the days I owe you
         C C/B Am C
Through red eyed pain I'm knocking on your door again
     G# G#/F# Em D
My crazy brain entangles pleading for your gentle voice
 C C/B Am
Those storms keep pounding through my head and heart
 C G# D
I pray you'll soothe my sorry soul
                    C D
All the days of my life (All the days of my life)
                    C D
All the days of my life (All the days of my life)
                    Em EmMaj7 Em7 Em6
All the days I owe you
                    C D
All the days of my life (All the days of my life)
                    C D
All the days of my life (All the days of my life)
                    Em EmMaj7 Em7 Em6
All the days I owe you
                    C D
All the days of my life (All the days of my life)
                    C D
All the days of my life (All the days of my life)
                    Em EmMaj7 Em7 Em6
All the days I owe you
------------------------------------------------------
Non capo version (not much fun this way, but here it is)
------------------------------------------------------
[Intro]
 Gm Bb Gm Bb
[Verse]
 Gm
Hold me tight
 Bb
Keep me cool
 Gm
Going mad
            Bb
Don't know what to do
 C Eb
Do I need a friend
        Bb
Well I need one now
[Chorus]
 F Eb
All the days of my life
 F Eb
All the days of my life
 F Gm Bb Gm Bb
All the days I owe you
[Verse]
 Gm
All I've done
      Bb
I've done for me
 Gm
All you gave
     Bb
You gave for free
 C Eb
I gave nothing in return
                    Bb
And there's little left of me
[Chorus]
 F Eb
All the days of my life
 F Eb
All the days of my life
 F Gm Bb Gm Bb
All the days I owe you
         Eb 

Sing It Out chords – KXC Worship

 [Intro]
 Em C G D
[Verse 1]
 Em
On the cross you were broken
 C
By your death I'm restored
              G
Nothing could hold back your love
              D
Nothing could hold back your love
 Em
Torn apart from the father
 C
All my shame became yours
              G
Nothing could hold back your love
              D
Nothing could hold back your love
[Chorus]
         C G
Sing it out oh hallelujah
         Em D
Sing it out oh hallelujah
          C
Jesus conquered death
    G
forever
       Em
He's alive
       D
He's alive
[Instrumental]
 C C C G
[Verse 2]
 Em
Now I stand here forgiven
 C
From your grace I won't hide
             G
Nothing will hold back your love
             D
Nothing will hold back your love
 Em
For the power that raised you
 C
Wakes my heart back to life
             G
Nothing will hold back your love
             D
Nothing will hold back your love
[Chorus]
         C G
Sing it out oh hallelujah
         Em D
Sing it out oh hallelujah
          C
Jesus conquered death
    G
forever
       Em
He's alive
       D
He's alive       (x2)
[Bridge]
 C
Ohhhahohoho
 G
Ohhhahohoho
         C
The power of the cross
          G
Lives in us      (x2)
[Instrumental]
 C G Em D     (x2)
[Outro]
         C
Sing it out....

All Along The Watchower solo Tabs – Jimi Hendrix Vsion 1

                 Title: ALL ALONG THE WATCHTOWER 1ST SOLO
                LEGEND:
                b bend
                r release
                p pull off
                ~ vibrato
                / slide up
                \ slide down            THIS SOLO IS BASED ON C#m (E MAJOR) PENTATONIC
                (full) 2 fret bend      BOTTOM NUMBERS ARE FRET-HAND FINGERING
                (1&1/2) 3 fret bend
                 Lick #1
                        Box #1
                       *Unison Bends*
                |-------9-----------------------------------------------------------------------|
                |------12b(full)---12b(full)r(12)p9----9----------------------------------------|
                |-------------------------------------------11----11b(full)---------------------|
                |-------------------------------------------------------------------------------|
                |-------------------------------------------------------------------------------|
                |-------------------------------------------------------------------------------|
                       1/3         1/3            1    1     3    2/3
                 Lick #2
                                   Box #2
                |-------------------------------------------------------------------------------|
                |-----------------------12---14b(full)(pick)r14---12---14b(full)----------------|
                |-----------9---11/13-----------------------------------------------------------|
                |------11-----------------------------------------------------------------------|
                |-------------------------------------------------------------------------------|
                |-------------------------------------------------------------------------------|
                        3   1    2  2    1   2/3              3    1    2/3
                 Lick #3
                        Box #2
                |-------------------------------------------------------------------------------|
                |-------14b(1,1/2)r(14)b(1,1/2)---14b(1,1/2)(pick)r14---12---14---12/14---12----|
                |-------------------------------------------------------------------------------|
                |-------------------------------------------------------------------------------|
                |-------------------------------------------------------------------------------|
                |-------------------------------------------------------------------------------|
                        2/3                       2/3               3    1    3    1  1   1
                 Lick #4
                    Box #1
                |-----------------------9-------------9-----------------------9-----------------|
                |-------------------9------12b(full)-----12--9-------------9-----12--9----------|
                |---9----11b(full)------------------------------11b(full)-----------------------|
                |-------------------------------------------------------------------------------|
                |-------------------------------------------------------------------------------|
                |-------------------------------------------------------------------------------|
                    1    2/3        1   1  2/3        1   4  1  2/3        1  1   4  1
                |-------------------------------------------------------------------------------|
                |-------------------------------------------------------------------------------|
                |---12p11p9------11b(full)--9~~~~~~~~~~~~~~~~~----------------------------------|
                |------------11-----------------------------------------------------------------|
                |-------------------------------------------------------------------------------|
                |-------------------------------------------------------------------------------|
                    4  3  1   3  2/3 

Pokemon – Red Blue And Yellow Rivals Theme Tabs – Misc Computer Games

 It just repeats this as far as i can tell... sound pretty surf rock
e|-----------------------|-----------------------|----------------|--------------|--------------||
B|-----------------------|-------5---------------|--------3-------|-6-3----3-----|--------------||
G|-------5---------------|---3-4-5----3--4-5-x-5-|-5-4-5----------|------5---5-3-|-5-3----------||
D|---3-4-5----3--4-5-x-5-|-5--------5------------|----------------|--------------|------3-4-5---||
A|-5-------5-------------|-----------------------|----------------|--------------|--------------||
E|-----------------------|-----------------------|----------------|--------------|--------------||
************************************
| x  Dead note
************************************

Agua Marfil chords – Usted Señalemelo

 [Intro]
 F# Bmaj7 (x2)
[Verse 1]
 F# Bmaj7
Tu vestido agua marfil
                       F#
Salió volando a todos lados.
                      Bmaj7
Estallo en un mar sin fin.
                       F#
Sirenas cantaban al costado.
 F# Bmaj7  (Un par de veces)
[Verse 2]
                   Bmaj7
Circulares agua marfil.
                         F#
Saltaban van para todos lados.
                 Bmaj7
Me perdí volandote.
                          Ebm
Y encantado del lugar callado.
[Chorus 1]
    F#maj7 B Bb Ebm
Tu cue---rpo bailaba.
    F#maj7 B Bb Ebm
Tu ri----sa lo acompañaba.
      F#maj7 B Bb Ebm
Y el a------gua ma----rfil
         F#maj7 B Bb
uniéndonos mas así.
[Verse 3]
 F# Bmaj7
Nubes agua marfil.
                           F#
Atormentaron lo inatormentado.
                      Bmaj7
Tan grande tu lago que
                       Ebm
mis gritos no llegaron.
[Chorus 2]
    F#maj7 B Bb Ebm
Tu cue---rpo bailaba.
    F#maj7 B Bb Ebm
Tu ri----sa lo acompañaba.
      F#maj7 B Bb Ebm
Y el a------gua ma----rfil
        F#maj7 B Bb
confundiendo mas aquí.
 F#maj7no3  F#maj7no3/F  F#maj7no3/E
         Co--------rra-----mos juunnntoos
 A#sus4 A#
no mires atrás.
 F#maj7no3  F#maj7no3/F  F#maj7no3/E
         Co--------rra-----mos juunnntoos
 A#sus4 A#
no mires atrás
hay humedad.
[Verse 4]
 F# Bmaj7
Tu vestido agua marfil
                       F#
Salió volando a todos lados.
                      Bmaj7
Estallo en un mar sin fin.
                       F#
Sirenas cantaban al costado.
[Chorus 3]
    F#maj7 B Bb Ebm
Tu cue---rpo bailaba.
    F#maj7 B Bb Ebm
Tu ri----sa lo acompañaba.
      F#maj7 B Bb Ebm
Y el a------gua ma----rfil
        F#maj7 B Bb
confundiendo mas aquí
 F# F#maj7
e|-9--|
B|-11-|
G|-10-|
D|-11-|
A|-9--|
E|----|
F#maj7no3
e|----|
B|----|
G|-10-|
D|-11-|
A|-9--|
E|----|
F#maj7no3/F
e|----|
B|----|
G|-10-|
D|-11-|
A|-8--|
E|----|
F#maj7no3/E
e|----|
B|----|
G|-10-|
D|-11-|
A|-7--|
E|----| 
Page 30 of 19,638« First...1020...2829303132...405060...Last »