Category: Chords


Leave My Guitar Alone chords – Noel Gallagher's High Flying Birds Vsion 3

  Mario Jaconelli
mailto: mariojaconelli
[Intro]
 D G D
[Verse 1]
                      D D7
You took off in the car
                      G E
With my electric guitar
                              A
And it didn't come as no surprise
                             A7
Even though you've got angel eyes
                     D
You won't get very far
[Verse 2]
                        D D7
You took all of my clothes
                    G E
Hid my poems and prose
                       A
You took my favourite show
                      A7
You didn't even even know
                       D G D D7
That's alright I suppose
[Chorus]
 Em7
Take what you need
            G D A7
But just leave my guitar alone, oh
 Em7
Don't make me plead
           Gm A A7
But don't leave me on my own
[Bridge]
 G D A7 D D7 G D A7 G D
 
[Chorus]
 Em7
Take what you need
            G D A7
But just leave my guitar alone, oh
 Em7
Don't make me plead
           Gm A A7
But don't leave me on my own
[Verse 3]
                      D D7
You took off in the car
                      G E
With my electric guitar
                              A
And it didn't come as no surprise
                             A7
Even though you've got angel eyes
                     D
You won't get very far
[Outro]
                               A
And it didn't come as no surprise
                              A7
Even though you've got angel eyes
                     D Dsus4 D D7
You won't get very far
                                A
And it didn't come as no surprise
                                A7
Even though you've got angel eyes
                       G D
You won't get very far

You Know Me chords – Air Traffic Controller Vsion 2

 First off, it took a while to figure out exactly what instruments and tuning they used
to play the main strumming in this song - turns out it is a Mandolin tuned to B-E-G#-C#.
Not exactly a common tuning as far as I know (it's the same notes the top 4 strings of a
capo 9 guitar), but it does sound cool here.
The best way that I found to mimic the mando's chord voicing on a guitar was to play it
an octave lower than the mando;
Capo 2.
Then alternating between
      (  D  )   (  G  )
e|------x-------x-----|
B|------3-------3-----|
G|------2-------o-----|
D|------o-------o-----|
A|------o-------2-----|
E|------x-------x-----|
And even better, since it's in the key of E, if you capo all the strings EXCEPT the high E,
you can play that one open throughout it all.
HOWEVER, all that is flavor really. Play it however you like. Below are the chords;
WITHOUT ANY CAPO-ING
[Intro]
 E E E E
[Verse 1]
 E E/C#
You know me, you know everything about me now...  my heart is in your hands
     E/B E
and you know you could break it, But wouldn't you rather make me siiiiiiiing like this
 E E/C#
You know me, I try to find some good in everything. Since you came along
 E/B E/B E
somehow this got easy, 'cause all you wanna do is please me my love
[Chorus]
                    A B C#
This could be a rollercoaster that we're gonna make the most of
              A B E
Whether on top or we're goin' down, You know me
[Verse 2]
 E E/C#
You know me (I know you), and how I get when I'm uncomfortable
 E/C# E/B E
If I'm too hot or cold, tired bored or hungry, I'm fine when you're around me boy
 E E/C#
And you know me, I've never been on time for anything
 E E/B E
I do apologize, I know it's such a bother, I promise to try harder for you girl, Oh I will
[Chorus 2]
            A B C#
This is a risk worth taking, This is a love in the making
          A B C#
We go nothing up our sleeves
            A B C#
We got an understanding, I don't think we could've planned it
          A B E
Better I know 'cause you know...  You know me
[Verse 3]
 E E/C#
You know me (you know me), I work to much, I'm always on the run (Baby I know, it's only just begun)
 E/C# E/B
You know how hard it can be to go on chasing something
 E/B E
This could amount to nothin' when it's all said and done
[Chorus 3]
                   A B C#m
I think you could make be better, I'm looking ahead but I'll never
         A B C#m
Regret anything that helped me see
                  A B C#m
And if you could be proud of me, And proud of yourself 'cause you got me
                  A B E
Then darlin' you know... yeah we both know, You know me
[Chorus 4]
                      A B C#m
Ooooh and I'll never hurt you darlin' You know damn well
                 A B C#m
And I'll never make you wonder If the things I tell you ain't the honest truth
         A B C#m
I bet a lot of folks can sing in harmony
                      A B
Yeah! But no one'll ever know you like…
       

Dont Eat Stuff Off The Sidewalk Tabs – The Cramps

 [Intro]
        (Ride cymbal)
e|-----------------------|----0------------------|
B|-----------------------|----2------------------|
G|-----------------------|----2------------------|
D|-----------------------|----2------------------|
A|-----------------------|----0------------------|
E|-----------------------|-----------------------|
[Verse]
e|---------0-0-----------|---------0-0-----------|---------0-0-----------|-----------------------|
B|-----1-3-----3-1-------|-----1-3-----3-1-------|-----1-3-----3-1-------|-----------------3--1--|
G|-2-2-------------2-----|-2-2-------------2-----|-2-2-------------2-----|--5---7----------------|
D|-----------------------|-----------------------|-----------------------|--5---7----------------|
A|-----------------------|-----------------------|-----------------------|--3---5----------------|
E|-----------------------|-----------------------|-----------------------|-----------------------|
e|---------0-0-----------|-----------------------|----------0-0----------|-----------------------|
B|-----1-3-----3-1-------|-----------------------|-----1-3-----3-1-------|-----------------------|
G|-2-2-------------2-----|-----------------------|-2-2---------------2---|-----------------------|
D|-----------------------|-------0-2-2-0---------|-----------------------|-------0-2-2-0---------|
A|-----------------------|-0-0-3---------3-0-----|-----------------------|-0-0-3---------3-0-----|
E|-----------------------|-----------------------|-----------------------|-----------------------|
e|-----------------------|-----------------------|---------0-0-----------|
B|-----------------------|-----------------------|-----1-3-----3-1-------|
G|---5---7---------------|-----------------------|-2-2-------------2-----|
D|---5---7---------2--0--|-------0-2-2-0---------|-----------------------|
A|---3---5---------------|-0-0-3---------3-0-----|-----------------------|
E|-----------------------|-----------------------|-----------------------|
[Solo]
e|-17-17-17-16-17-17-17-16-|-17-17-17-16-17-17-17-16-|-17-17-17-16-17-17-17-16-|
B|-17-17-17-16-17-17-17-16-|-17-17-17-16-17-17-17-16-|-17-17-17-16-17-17-17-16-|
G|-------------------------|-------------------------|-------------------------|
D|-------------------------|-------------------------|-------------------------|
A|-------------------------|-------------------------|-------------------------|
E|-------------------------|-------------------------|-------------------------|
e|-17-16-15-14-13-12-11-10-|-------------------------|-------------------------|
B|-17-16-15-14-13-12-11-10-|-------------------------|-------------------------|
G|-------------------------|------7---------5--------|-----------------7-------|
D|-------------------------|------7---------5--------|------7----------7-------|
A|-------------------------|------5---------3--------|------7----------5-------|
E|-------------------------|-------------------------|------5------------------|
[Verse]
e|-----------------------|---------0-0-----------|-----------------------|-----------------------|
B|-----------------------|-----1-3-----3-1-------|-----------------------|-----------------------|
G|-----------------------|-2-2-------------2-----|-----------------------|---5---7---------------|
D|-------0-2-2-0---------|-----------------------|-------0-2-2-0---------|---5---7---------2--0--|
A|-0-0-3---------3-0-----|-----------------------|-0-0-3---------3-0-----|---3---5---------------|
E|-----------------------|-----------------------|-----------------------|-----------------------|
e|-----------------------|---------0-0-----------|
B|-----------------------|-----1-3-----3-1-------|
G|-----------------------|-2-2-------------2-----|
D|-------0-2-2-0---------|-----------------------|
A|-0-0-3---------3-0-----|-----------------------|
E|-----------------------|-----------------------|

Green Is The Colour chords – Pink Floyd Vsion 3

 Song: Green is the colour
Artist: Pink Floyd
 Roger Waters
 More
 DJ
20th Aug 2016
TUNING: The track is very slightly flat of concert pitch.
To play along use a chromatic tuner, and tune all the
strings down approx. minus 15
 G   = 320003    D      = xx0232    D7   = xx0212
 C   = x32010    Cadd9  = x32030    Em7  = 022030
 Bm  = x24432    Cmaj7  = x32000
 Em  = 022000    D6     = xx0202
***********************************************************
[Intro]
    G C G C G Bm
|  /  /  /  /  |  /  /  /  /  |  /  /  /  /  |
    C Em D
|  /  /  /  /  |  /  /  /  /  |  /  /  /  /  |
[Verse 1]
   G Cadd9
Heavy hung the canopy of blue,
   G Cmaj7
Shade my eyes, and I can see you,
   G Bm C
White is the light that shines...
                 Em D
...Through the dress that you wore!
[Verse 2]
      G Cadd9
She lay in the shadow of a wave,
  G C
Hazy were the visions over-played,
  G Bm
Sunlight on her eyes,
        C Em D D6 D7 D D6 D7
But moonshine made her cry every time!
[Verse 3]
   G Cadd9
Green is the colour of her kind,
   G Cmaj7
Quickness of the eye de - ceives the mind,
   G Bm
Envy is the bond,
              C Em7 D D6 D7
Between the hopeful and the damned--------!
[Coda]
      G C G C
||:  /  /  /  /  |  /  /  /  /  |
    G C Cadd9 C D D6 D7
|  /  /  /    /__/  |  /  /__/  /  / :||[x3]   End on G

Wrong Side Of The Street chords – Bruce Springsteen

 [Intro]
 G F G F D
[Verse 1]
 G
Turn on the radio, turn off the lights
                                              Dm
We'll bring an end, darling, to your endless night
                                 C D
You're on the wrong side of the street
 G
I see your fortune in the lines in your face
                                       Dm
I knew you're looking for your saving grace
                                 F
You're on the wrong side of the street
 C
Fear and desire such a sweet confusion
       D
Well, open your eyes and throw down your illusions
     F C D
And see you never belonged here with me
 G
You and your poetry and your cool, cool world
                                                Dm
You been working hard on that face of a martyr girl
                                 C D
You're on the wrong side of the street
 G
You got the look and you own your world
                                                  Dm
But here you better check your diamonds and your pearls
                                 F
You're on the wrong side of the street
[Chorus]
 C
You get bored of every day bringing the same
        D
So you go out looking for some strange new games
            F C D
But pretty soon you don't know the score or what you're looking for
 G F G F D
[Guitar + Sax Solo]
 G Dm C D G Dm F
[Chorus]
 C
You get bored of every day bringing the same
        D
So you go out looking for some strange new games
            F C D
But pretty soon you don't know the score or what you came here for
 G
Turn on the radio, turn off the lights
                                              Dm
We'll bring an end, darling, to this endless night
                               F
Here on the wrong side of the street
 C
Fear and desire such a sweet confusion
        D
Well, open your eyes and throw down your illusions
     F C D
And see tonight there's no one here but you and me
[Outro]
 G   /   F   (repeat until fade out)

Let You Get Away chords – Electric Century

 [Verse 1]
 G
I came on the radio on your porch
 G Em
Playing songs that remind you of that time
              G
When you got high
           G
And stood around just talking to your girlfriends
 G Em
Saying I was just a little more than something fine,
               G
Well I've got mine.
[Chorus]
 C D G G/F# Em
  I don't need you to call, wish there was something in me you saw,
                C D Em
Wish there was something about me I could find to change,
         C D G
Because baby I was crazy to let you get away.
[Verse 2]
 G
I could hear the radio in my car
         G Em
Playing songs that remind me of the phase
                 G
When life was a game.
 G
I could see there's nothing else around me
         G Em
All the boys moved out and left me here to waste
                G
Like I've been erased.
[Chorus]
 C D G G/F# Em
  I don't need you to call, wish there was something in me you saw,
                C D Em
Wish there was something about me I could find to change,
         C D G
Because baby I was crazy to let you get away.
[Interlude]
 G Em G Em C D G
[Verse 3]
 G
I could see the shadows of my old street,
            G Em
I remember days when I was not so lost
               G
When did I go soft?
 G
Now I pick my head up in the daylight,
           G Em
Drive for miles until I hit the dead moonlight,
            G
Until I am right.
[Chorus]
 C D G G/F# Em
  I don't need you to call, wish there was something in me you saw,
                C D Em
Wish there was something about me I could find to change,
         C D Em
Because baby I was crazy to let you get away.
         C D G
Because baby I was crazy to let you get away.
          Em
Come on, baby
          G
Come on, baby
          Em
Come on, baby
         C D G
Because baby I was crazy to let you get away.

Cold Hearted chords – Glee Cast Vsion 2

 Listen to the song to get the strumming pattern down - the strumming pattern's very jazzy and really fun to
play once you get into the funk of it!
[Verse 1]
        F#m
He's a cold-hearted snake Look into his eyes
 D E
Oh oh oh He's been tellin' lies
         F#m
He's a lover boy at play He don't play by the rules
 D E
Oh oh oh Girl don't play the fool--no
[Verse 2]
 F#m
You're the one givin' up the love Anytime he needs it
 D E
But you turn your back and then he's off and runnin' with the crowd
 F#m
You're the one to sacrifice Anything to please him
 D E
Do you really think he thinks about you when he's out
[Bridge]
 Bm Bsus G# F#
          You could find somebody better girl
 Bm Bsus G# F#
          He could only make you cry
 Bm Bsus G# F#
          You deserve somebody better girl
 Bm Bsus G# F#
          He's c-cold as ice

Amalee – God Knows English chords

 Song: God Knows (English)from the Melancholy of Haruhi Suzumiya
English lyrics by Amanda Lee (AmaLee)
Capo: 4
[Verse 1]
   Am G
This empty heart runs past you time and again
    F G C
I’m sorry that I can’t be any help to you
 Am G
I wish I could, but more I wish that you understood
 F G C
That even now, your pride won’t let me share your pain
[Pre-chorus 1]
 F Em
I’ll live on and leave all of this fear far behind me
          Dm F E
I’ll get back on the track, all without looking back on this lonely rail
[Chorus 1]
                F G
You know that I would follow you no matter what we go through
 Em Am
Bring all the darkness the world can offer,
           Dm Em Am
Because you’ll shine no matter if the future is bleak
                F
We’ll aim out just beyond the boundary,
      G
And even if it scares me,
 Em Am
Nothing can shatter my soul
                    Dm
Because your way is my way
   Em F G
Forever on this railway
                Am
As if we were God blessed
[Instrumental]
 F G Em Am F G Am
[Verse 2]
  Am G
This tenderness, a feeling that I cannot express
  F G C
Melting my walls, it finds a home inside my heart
   Am G
We don’t need fate, no rhyme or reason to correlate
  F G C
Only the now that overflows, lovin’ you
[Pre-Chorus 2]
  F Em
Let’s escape and chase after the dreams we both create
      Dm
And maybe then we’ll mend
       F E
So then you can transcend beyond your lonely heart
[Chorus 2]
                F
Don’t you dare lie, it isn’t like you
  G
Please, tell me it’s not true
 Em Am
Look in my eyes, we can work this out
              Dm Em Am
We’ll put it in the past, so let’s begin the future today
              F G
Even if everything around us seems as if it’s hopeless
  Em Am
I am prepared to take on the world
             Dm Em F G
It’s all for my wish, I ask if it will come true
               Am
But that only God knows...
[Bridge]
      F
I’ve found where I belong
      Em Dm
I once was all alone, but now you’re standing here
      Em Am
The world around could disappear
       F Em
The beauty of our dream, we’ll capture it on canvas,
                Dm F E
You and I can trace over our permanent scars
[Key Change]
  E
You know that –
   F#
Please know that,
[Chorus 3]
  G A
I would follow you no matter what we’re go through
  F#m Bm
Bring all the darkness this world can offer,
          Em F#m Bm
Because you’ll shine no matter if the future is bleak
                G
We’ll aim out just beyond the boundary,
        A
And even if it scares me,
   F#m Bm
Nothing can shatter my soul
                    Em
Because your way is my way

Private Number chords – Beverley Knight

 Song: Private number
Artist: Beverley Knight (Feat. Jamie Cullum)
 Booker T. Jones and William Bell
 Soulsville
 DJ
14th Aug 2016
CAPO: 2nd fret (Sounds in the key of E)
Chord names and fret positions are relative to the capo:
 Bm     = x24432     A/D    = xx0655     C        = x32010
 Asus2  = x02200     G/D    = xx0433     Gmaj7/A  = x00032
 A      = x02200     D4     = xx0233     Dmaj7    = xx0222
 A4     = x02230     E7     = 022130     G6       = 320030
 G      = 320003     A7/G   = 302020     Em7      = 022030
 D      = xx0232     F#m    = 244222     A7sus4   = x02030
                   F#m/A  = x0xxxx     D5       = xx0235
                                     Gmaj7    = 320002
h = Hammer-on   p = Pull-off
N.B. Lyrics in brackets are sung by Jamie Cullum.
**********************************************************************
[Intro]
                Bm Asus2 A A4 A G
e |----------|-----2---0------------|--3----3-----------|
B |----------|-----3---0-h2--h3-p2--|--0----0-----------|
G |----------|-----4---2------------|--0----0-----------|
D |----------|-----4---2------------|--0--0-------------|
A |----0--1--|--2------0------------|--2----------0--1--|
E |--3-------|----------------------|--3--------3-------|
     Bm Asus2 A A4 A G
e |-----2---0-------------|--3---------------------|
B |-----3---0--h2--h3-p2--|--0---------------------|
G |-----4---2-------------|--0---------------------|
D |-----4---2-------------|--0---------0-------0---|
A |--2------0-------------|--2----2-h4----2-h4-----|
E |-----------------------|--3---------------------|
[Verse 1]
 D A/D G/D D D4 D A/D G/D
   (Since I've been gone you've had your num - ber changed!)
 D A/D G/D D D4 D A/D G/D
   But my love for you, boy, still re - mains the same!
       G E7 A A7/G
(Now, I've been loving you...)
      F#m F#m/A Bm
And you've been lov - ing   me...
             C Gmaj7/A
(...For so long, baby, what's wrong-----------------?)
                                     So, I'm asking...
[Chorus]
     D Dmaj7 G6 Em7 A7sus4 D D D4 D5 D4
...Baby, baby, baby, please, let me have your number!
  (Baby, baby, baby!)
   D Dmaj7 G6 Em7 A7sus4 D
(Baby, baby, baby, please, let me have your number! Yeah!)
 Baby, baby, baby!
[Verse 2]
 D A/D G/D D
   I'm sorry you couldn't call me when you got home,
  A/D G/D D A/D G/D
(Woo -hoo, hoo -oo!)      But, other fellahs kept on calling,
        D D4 D A/D G/D
While you were gone,            well...
     G E7 A A7/G
So, I had the number changed,
        F#m F#m/A Bm
(Girl, I'm not act - ing strange!)
          C Gmaj7/A
Welcome home, ...nothing is wrong------! So, I'm saying...
                (Nothing is wrong------! Hoh-------!)

Symphony chords – Anna O

 [Verse 1]
 Fm Fm
We're a symphony
 Fm Eb
Weaving melodies
 Fm Fm Eb
A fiery beating drum
 Fm Ab
Moving together
 Ab Eb
Keeping time
 Fm Ab Eb
Driving forward on this line
[Chorus]
N.C.
We go together like
 Fm Fm Eb
Ooh—-
 Fm Fm Eb
Ooh—-
[Verse 2]
 Fm Fm
We're a symphony
 Fm Eb
Weaving melodies
 Fm Fm Eb
A fiery beating drum
 Fm Ab
Moving together
 Ab Eb
Keeping time
 Fm Ab Eb
Driving forward on this line
[Chorus]
N.C.
We go together like
 Fm Fm Eb
Ooh—-
 Fm Fm Eb
Ooh—-
We go together like
 Fm Fm Eb
Ooh—-
 Fm Fm Eb
Ooh—-
We go together like
[Bridge]
 Ab Cm
Take me away
 Ab Cm
You take me away
 Ab
To another world
 Ab Cm
Take me away
 Ab Cm
You take me away
 Ab
Where we make the rules
[Verse 3]
 Fm Fm
We're a symphony
 Fm Eb
Weaving melodies
 Fm Fm Eb
A fiery beating drum
 Fm Ab
Moving together
 Ab Eb
Keeping time
 Fm Ab Eb
Driving forward on this line
[Chorus]
 Ab Cm
Take me away
 Ab Cm
You take me away
 Ab
To another world
 Ab Cm
Take me away
 Ab Cm
You take me away
 Ab
Where we make the rules
[Interlude]
 Fm
Lights go down
They're breathing in
Anticipation fills the room
And their hearts begin to break in two
Lights go down
They're breathing in
Anticipation fills the room
And their hearts begin to break in two
[Chorus]
 Ab Cm
Take me away
 Ab Cm
You take me away
 Ab
To another world
 Ab Cm
Take me away
 Ab Cm
You take me away
 Ab
Where we make the rules
 Fm Fm Eb
Ooh—-
 Fm Fm Eb
Ooh—-
Page 4 of 19,640« First...23456...102030...Last »